Offspring - Original Prankster Chords & Tabs

 

Original Prankster Chords & Tabs

Offspring Chords & Tabs

Version: 5 Type: Tab 0 ratings
1 star 2 stars 3 stars 4 stars 5 stars
comments

Original Prankster Tab

#----------------------------------PLEASE NOTE--------------------------------#
#This file is the author's own work and represents their interpretation of the#
#song. You may only use this file for private study, scholarship, or research.#
#-----------------------------------------------------------------------------#
#-- File created with Instab - http://www.pconline.com/~smcarey/instab.html --#
#-----------------------------------------------------------------------------#

Author/Artist: The Offspring
Title: Original Prankster
Album: Cospiracy of One
Transcribed by: Deky
Email: roby.deky@tin.it

Intro:
======
|-------------|---|-----------------|-------|-------------|----------------|-
|-------------|---|-----------------|-------|-------------|----------------|-
|-------------|---|---------2-------|-------|-------------|----------------|-
|-------------|---|-----------------|-------|-------------|-0--------------|-
|-0-0-3-0-0---|---|-0-0-3-0---0-3-0-|-------|-0-0-3-0-0---|----------------|-
|-------------|---|-----------------|-------|-------------|----------------|-
| Guitar 1                                                                     
|
|-------------|---|-----------------|-------|-------------|----------------|-
|-------------|---|-----------------|-----0-|-------------|-0------------0-|-
|-------------|---|-----------------|---0---|-0-0-3-0-0---|------------0---|-
|-------------|---|-----------------|-------|-------------|----------------|-
| Bass                                                                         


|-----------------|------------------|-
|-----------------|------------------|-
|---------2-------|------------------|-
|---------------0-|----0-----0-0-----|-
|-0-0-3-0---0-0---|------3-3-----3-3-|-
|-----------------|------------------|-
| Guitar 1                                                                    
|
|-----------------|------------------|-
|---------------0vvvvv-0-----0vv-----|-
|-0-0-3-0-----0---|------3vv-----3vv-|-
|-----------------|------------------|-
| Bass                                                                         



Verse:
======
|-----------------|------------------||-----------------|-----|-
|-----------------|------------------||-----------------|-----|-
|---------2-------|------------------||---------2-------|-----|-
|-------------1-0-|----0-----0-0-----||-------------1-0-|-----|-
|-0-0-3-0---0-----|------3-3-----3-3-||-0-0-3-0---0-----|-----|-
|-----------------|------------------||-----------------|-----|-
| Guitar 1                         (x3)                     (x1)
|
|---------2-------|------------------||---------2-------|-----|-
|-------------1-0vvvvv-0-----0-------||-------------1-0-|-----|-
|-0-0-3-0---0-----|------3-------3---||-0-0-3-0---0-----|-----|-
|-----------------|------------------||-----------------|-----|-
| Bass                             (x3)                     (x1)             

[ Tab from: http://www.guitartabs.cc/tabs/o/offspring/original_prankster_tab_ver_5.html ]
|-----------------|------------------||-----------------|-----------------||-
|-----------------|------------------||-----------------|-----------------||-
|---------2-------|------------------||-----------------|-----------9-9-9-||-
|-------------1-0-|----0-----0-0-----||-5-----------5-5-|-9-9-9-9-9-9-9-9-||-
|-0-0-3-0---0-----|------3-3-----3-3-||-5-5-5-5-5-5-5-5-|-7-7-7-7-7-7-7-7-||-
|-----------------|------------------||-3-3-3-3-3-3-3-3-|-----------------||-
| Guitar 1                         (x3)                                 (x1) 
|
|---------2-------|------------------||-----------------|-----------------||-
|-------------1-0vvvvv-0-----0-------||-----------------|-----------------||-
|-0-0-3-0---0-----|------3-------3---||-----------------|-7-7-7-7-7-7-7-7-||-
|-----------------|------------------||-3-3-3-3-3-3-3-3-|-----------------||-
| Bass                             (x3)                                 (x1) 



Pre-Chorus:
===========
|-----------------|-----------------||-----------------|-----------------||-
|-----------------|-----------------||-----------------|-----------------||-
|-2---5---9---8-7vvv-7-5---7---5----||-----------------|-9-9-9-9-9-9-9-9-||-
|-2---5---9---8-7vvv-7-5---7---5----||-5-----------5-5-|-9-9-9-9-9-9-9-9-||-
|-0---3---7---6-5vvv-5-3---5---3----||-5-5-5-5-5-5-5-5-|-7-7-7-7-7-7-7-7-||-
|-----------------|-----------------||-3-3-3-3-3-3-3-3-|-----------------||-
| Guitar 1                        (x3)                                 (x1)  
|
|-----------------|-----------------||-----------------|-----------------||-
|-----------------|-----------------||-----------------|-----------------||-
|-0---3---7---6-5vvv-5-3---5---3----||-----------------|-7-7-7-7-7-7-7-7-||-
|-----------------|-----------------||-3-3-3-3-3-3-3-3-|-----------------||-
| Bass                            (x3)                                 (x1)  



Chorus:
=======
|-----------------|-----------------||------------------|-----------------|-
|-----------------|-----------------||------------------|-----------------|-
|-2-x-2---2-2-2-2-|-7-7-7--12121212-||-12---7--12---7---|---121212121213--|-
|-2-x-2---2-2-2-2-|-7-7-7--12121212-||-12---7--12---7---|---121212121213--|-
|-0-x-0---0-0-0-0-|-5-5-5--10101010-||-10---5--10---5---|---101010101011--|-
|-----------------|-----------------||------------------|-----------------|-
| Guitar 1                        (x3)                                 (x1)  
|
|-----------------|-----------------||------------------|-----------------|-
|-----------------|-----------------||--5-------5-------|----5-5-5-5-5-6--|-
|-0-x-0---0-0---0-|-5-5-5--10101010-||------5-------5---|-----------------|-
|-----------------|-----------------||------------------|-----------------|-
| Bass                            (x3)                                 (x1)  


Outtro:
=======
|-----------------|------------------|------------------|---------------
|-----------------|------------------|------------------|---------------
|-7-7-7-7-7-7-7-7-|-12---7--12---7---|---12121212121212-|-2vvvvvvvvvv---
|-7-7-7-7-7-7-7-7-|-12---7--12---7---|---12121212121212-|-2vvvvvvvvvv---
|-5-5-5-5-5-5-5-5-|-10---5--10---5---|---10101010101010-|-0vvvvvvvvvv---
|-----------------|------------------|------------------|---------------
| Guitar 1                                                                    
|
|-----------------|------------------|------------------|---------------
|-----------------|--5-------5-------|----5-5-5-5-5-5-5-|---------------
|-5-5-5-5-5-5-5-5-|------5-------5---|------------------|-0vvvvvvvvv----
|-----------------|------------------|------------------|---------------
| Bass                                                                        



Play:

Intro, Verse, Verse, Pre-Chorus, Chorus, Verse, Verse, Pre-Chorus, Intro, Verse,
Pre-Chorus, Chorus, Outtro.
Comments