Offspring - Original Prankster Chords & Tabs

 

Original Prankster Chords & Tabs

Offspring Chords & Tabs

Version: 20 Type: Tab 0 ratings
1 star 2 stars 3 stars 4 stars 5 stars
comments

Original Prankster Tab

I couldn't stand seeing all of the wrong tabs on there, so I came up with one and added it myself
Intro: Guitar 1 (Noodles)
e|----------------------------------------------------------------------
B|----------------------------------------------------------------------
G|---------------------------------2------------------------------------
D|-----------------------------------------------------------------0----
A|----0-0-3-0-0-----------0-0-3-0-----0-3-0-----------0-0-3-0-0---------
E|----------------------------------------------------------------------

e|------------------------------------------|
B|------------------------------------------|
G|--------------2---------------------------|
D|-----------------------2--0--0----0-------|
A|----0-0-3-0------0-------------3-----3----|
E|------------------------------------------|

Verse: Riff 1 Guitar 1                      Guitar 2 (some kind of ska)
e|----------------------------------------|-------------------------------|
B|----------------------------------------|-------------------------------|
G|-------------2--------------------------|-------------------------------|
D|----------------------2--0--0----0------|---7-7-7-7-------10-10-10-10---|
A|---0-0-3-0------0-------------3-----3---|---7-7-7-7-------10-10-10-10---|
E|----------------------------------------|---5-5-5-5--------8--8--8--8---|
[ Tab from: http://www.guitartabs.cc/tabs/o/offspring/original_prankster_tab_ver_20.html ]
Riff 2 Guitar 1                   Guitar 2
e|-----------------------------|------------------------------|
B|-----------------------------|------------------------------|
G|-----------------99999999----|------------------------------|
D|----55555555-----99999999----|----55555555-----22222222-----|
A|----55555555-----77777777----|----55555555-----22222222-----|
E|----33333333-----------------|----33333333-----00000000-----|

Riff 3 Guitar 1 & 2
e|------------------------------------------|
B|------------------------------------------|
G|------------------------------------------|
D|----7--10--14--13--12--12--10--12--10-----| x3
A|----7--10--14--13--12--12--10--12--10-----|
E|----5---8--12--11--10--10---8--10---8-----|

Riff 4 Guitar 1 & 2                                             Guitar 1
e|-------------------------------|      |--------------------|-----------------------   
B|-------------------------------|      |--------------------|-----------------------   
G|-------------------------------|      |--------------------|-----------------------   
D|----7---7-------10------12-----| x3   |----10/7---10/7-----|-1212121212--13--14----   
A|----7---7-------10------12-----|      |----10/7---10/7-----|-1212121212--13--14----   
E|----5---5--------8------10-----|      |-----8/5----8/5-----|-1010101010--11--12----   

Guitar 2
e|--------------------|
B|--------------------|
G|--------------------|
D|----55555--6--7-----|
A|----55555--6--7-----|
E|----33333--4--5-----|
Comments