Offspring - Original Prankster Chords & Tabs

 

Original Prankster Chords & Tabs

Offspring Chords & Tabs

Version: 19 Type: Tab 0 ratings
1 star 2 stars 3 stars 4 stars 5 stars
comments

Original Prankster Tab

Song title: Original prankster
Band: offspring
By: Harry Irving
This is almost exactly how it's played.
[--------------------------------------------------
[--------------------------------------------------
[--------------------------------------------------
[-----------------------2--------------------------
[--0-0-3--0-0--0-0-3-0---0-3-0--0-0-3-0-0--5--0-1--
[--------------------------------------------------
[ Tab from: http://www.guitartabs.cc/tabs/o/offspring/original_prankster_tab_ver_19.html ]
Continued

[--------------------------------------------------
[--------------------------------------------------
[--------------------------------------------------
[----------2---------------------------------------
[--------------------------------------------------
[--0-0-3-0---0-6-5-5-3-5-3-------------------------

continued part repeated.

I'm working on the rest of the song. The rest will be coming
soon.

Comments