Offspring - Original Prankster Chords & Tabs

 

Original Prankster Chords & Tabs

Offspring Chords & Tabs

Version: 11 Type: Tab 0 ratings
1 star 2 stars 3 stars 4 stars 5 stars
comments

Original Prankster Tab

   
Offspring, Original Prankster.
Tabbed by Timothy Hunt, click_tim@hotmail.com.
  
I am 95% sure that this tab is right. I have seen a lot of wrong tabs. This isnt. Well here it is. Use distorsion but it sounds cool anyway. Have fun!Tim Hunt.
Intro:
e|---------------------------------------------------------------------------------|
B|-------------------------------------------------------------------------------|
G|--------------------------------------------------------------------------------|
D|------------------------------------------------------2------------------------------------------------0-------------------------1---0--0------0----------------------------------|
A|----0--0--3--0--0----------------0---0--3--0--------0---3---0------------0---0--3--0---0----------0---0--3--0--0--------------3-------3---------------------------------|
E|--------------------------------------------------------------------------------------------------------------------------------------------------------------------|
Right after do this:
e|--------------------------------------------------------------------------|
B|--------------------------------------------------------------------------|
G|-------------------------------------------------------------------------|
D|-----------------------1--0-----------------------1-0-------------------------|
A|-0--0--3--0--3--0---------0--0--3--0--3--0-------------------------------------------|
E|--------------------------------------------------------------------------|
Repaet as many times as possible
Next:
e
B
G
D
A|--------7-6-5-5-3-5-3--------7-6-5-5-3-5-3--------------------------------------------------------|
E|-5--7---------------------5--7---------------------------------------------------------|
Thats about it.Timothy Hunt. 
:: Ultimate Guitar Archive :: 
http://www.ultimate-guitar.com 


[ Tab from: http://www.guitartabs.cc/tabs/o/offspring/original_prankster_tab_ver_11.html ]
Comments