Offspring - Original Prankster Chords & Tabs

 

Original Prankster Chords & Tabs

Offspring Chords & Tabs

Version: 1 Type: Tab 7 ratings
1 star 2 stars 3 stars 4 stars 5 stars
comments

Original Prankster Tab

Note: This is the first tab I’ve ever done (I’m only 14 years old) but
I’m almost sure it’s 100% correct, and if it isn’t, it’s really close. I
also didn’t take the time to put in timing, but if you play along with
the song it should be pretty easy to figure out.


Intro:
E)-----------|-----------------|--------------|------------------------|
B)-----------|-----------------|--------------|------------------------|
G)-----------|-----------------|--------------|------------------------|
D)-----------|---------7-------|--------------|---------7--------------|
A)-0-0-3-0-0-|-0-0-3-0---0-3-0-|-0-0-3-0-0--5-|-0-0-3-0---0-0-5-5-3-5-3|
E)-----------|-----------------|--------------|------------------------|
[ Tab from: http://www.guitartabs.cc/tabs/o/offspring/original_prankster_tab.html ]
Main Riff:
E)------------------------|----------------|		Order:
B)------------------------|----------------|		Intro/Main riff
G)------------------------|----------------|		Verse x2
D)---------7--------------|---------7------|		Pre-chorus
A)-0-0-3-0---0-6-5-5-3-5-3|-0-0-3-0---0-6-5|		Chorus
E)------------------------|----------------|		Main riff
 ^----------3X-----------^				Verse x2		
							Chorus
Verses (palm mute):					Intro/Main-riff
E)-----------------------|----------------|		Pre-chorus
B)-----------------------|----------------|		Chorus
G)-----------------------|----------------|		
D)---------7-------------|-5-x-x-x-x-6-x-x|
A)-0 0-3-0----6-5-5-3-5-3|-5-x-x-x-x-6-x-x|
E)-----------------------|-3-x-x-x-x-4-x-x|
 ^--Repeats throughout--^
         verses


Pre-Chorus Chords (Knock down the wall....):
E)-------------------------|----------------|
B)-------------------------|----------------|
G)----5--9--8/7--7--5--7--5|----------------|
D)-7--5--9--8/7--7--5--7--5|-5-x-x-x-x-6-x-x|
A)-7--3--7--6/5--5--3--5--3|-5-x-x-x-x-6-x-x|
E)-5-----------------------|-3-x-x-x-x-4-x-x|
^-----------3x-------------^


Chorus (You got bust out on ‘em....):
E)------------------|-----------------------|-5-|
B)------------------|-----------------------|-5-|
G)-------7--7/12--12|-12--7--12--7-7-7-7-7-7|-6-|
D)-7--7--7--7/12--12|-12--7--12--7-7-7-7-7-7|-7-|
A)-7--7--5--5/10--10|-10--5--10--5-5-5-5-5-5|-7-|
E)-5--5-------------|-----------------------|-5-|
^--------3x--------^				    ^
							     End Chord
Comments