Offspring - One Hundred Punks Chords & Tabs

 

One Hundred Punks Chords & Tabs

Offspring Chords & Tabs

Version: 1 Type: Tab 0 ratings
1 star 2 stars 3 stars 4 stars 5 stars
comments

One Hundred Punks Tab

   
#----------------------------------PLEASE NOTE---------------------------------#
#This file is the author's own work and represents their interpretation of the #
#song. You may only use this file for private study, scholarship, or research. #
#------------------------------------------------------------------------------##

ONE HUNDRED PUNKS by THE OFFSPRING by DEFY YOU (SINGLE) (2002)
This Cover-Song was originally made by GENERATION X in 1978. So it´s a real "Punk-Oldie".
The Tab should be about 95% correct. But the =Bridge-Part= may include a few mistakes.
Anyway, have fun and rock!!!

Notes:
* = play this 8 times
# = let ring

=Main Riff= X8 (play 4 times palm-muted and 4 times with distortion)
|-------------------------------------------------------------------------------------|
|-------------------------------------------------------------------------------------|
|-----------3--3-3------------------------------------------------------------------|
|-3--3----3--3-3-------------------------------------------------------------------|
|-3--3----1--1-1-------------------------------------------------------------------|
|-1--1------------------------------------------------------------------------------|

Then play
=Main Riff= X6  (start when Dexter begins to sing "They customised...")

and then play
=Riff-End= X1
|---------------------------------------------------------------------------------|
|---------------------------------------------------------------------------------|
|------------10-10--------------------------------------------------------------|
|--10-10--10-10---10--10--10--10------------------------------------------|
|--10-10----8--8---10--10--10--10------------------------------------------|
|----8--8-------------8----8----8----8-----------------------------------------|

=Chorus= X1 (start when Dexter sings "Check out any wall...") / Play Brackets palm-muted and VERY FAST
|-------------------------------------------------------------------------------------|
|-------------------------------------------------------------------------------------|
|-------------------------------------------------------------------------------------|
|--(3*--3*--3*--3*)----5-5-5-5-5----------------------------------------------|
|--(3*--3*--3*--3*)----5-5-5-5-5----------------------------------------------|
|--(1*--1*--1*--1*)----3-3-3-3-3----------------------------------------------|

Then play
=Main Riff= X4

="A hundred..."-Part=
When Dexter begins to sing, Guitar 1 plays =Main Riff" X6 and then =Riff-End= X1 and Guitar 2
plays once
|-----------------------------------------------------------------------------------|
|-----------------------------------------------------------------------------------|
|--5-5-5-5-3-3-3-3--------------------------------------------------------------|
|------------------------5--5----3------------------------------------------------|
|-----------------------------------------------------------------------------------|
|-----------------------------------------------------------------------------------|

Repeat ="A hundred..."-Part=

Then play
=Chorus= X1
=Main Riff= X4
="A hundred..."-Part= X2
=Chorus= X1
=Main Riff= X4
[ Tab from: http://www.guitartabs.cc/tabs/o/offspring/one_hundred_punks_tab.html ]
=Interlude= X4 / everything palm-muted
|---------------------------------------------------------|
|---------------------------------------------------------|
|-------5*-----------------------------------------------|
|--3*--5*--3*--3*-------------------------------------|
|--3*--3*--3*--3*-------------------------------------|
|--1*-------1*--1*-------------------------------------|

=Solo-Part= 
In the =Solo-Part= Guitar 1 plays the =Main-Riff= 10 times and 
Guitar 2 plays this once
|--11/12-13--13--12-13----15/16--15--16-15---------------------------------|
|-------------------------------------------------------------------------------------|
|-------------------------------------------------------------------------------------|
|-------------------------------------------------------------------------------------|
|-------------------------------------------------------------------------------------|
|-------------------------------------------------------------------------------------|

|-------------------------------------------------------------------------------------------------------------------------------------------------|
|-9/11-13--11-9-11-9----8/9-9-9-9-8-8-8-8-6-6-6-6-4-4-4-4-3-3----------------------------------------------------------------------|
|------------------------------------------------------------------------------------3-3----5-5-5-5-3-3-3-3----------------------------------|
|-------------------------------------------------------------------------------------------------------------------5--5----3-------------------|
|-------------------------------------------------------------------------------------------------------------------------------------------------|
|-------------------------------------------------------------------------------------------------------------------------------------------------|

Then play
="A hundred..."-Part= X1
=Chorus= X1
=Main-Riff= X4

=Bridge-Part= X1 / Guitar 1 plays the power-chords and Guitar 2 the brackes
|---------------------------------------------------------------(6/8-8--------)--------------|
|-------------------------(5/6-5)------------------------------(--------5/6-6)-------------|
|----------10-10---------10--------------------10-10--------10--------------------------|
|--10-10-10-10-10-----10-10--------10-10-10-10-10----10-10----------------------|
|--10-10---8--8-10------8-10---------10-10--8--8-10------8-10----------------------|
|----8--8----------8----------8-----------8---8---------8----------8----------------------|

Then play
=Chorus= X1
=Main Riff= X2
=Chorus= X1

=End=
|-------------------------------------------------------------------------------------|
|-------------------------------------------------------------------------------------|
|-----------3--3-3-------------------------------------------------------------------|
|-3--3----3--3-3----3----3-3----3#-----------------------------------------------|
|-3--3----1--1-1----3----3-3----3#-----------------------------------------------|
|-1--1----------------1----1-1----1#-----------------------------------------------|

This wasn´t very hard - what do you think?
Send me your comments about this Tab to "ali.germany2000@freenet.de"

Tabbed by: Ali_A (2nd March 2002)
Comments