Offspring - One Fine Day Chords & Tabs

 

One Fine Day Chords & Tabs

Offspring Chords & Tabs

Version: 5 Type: Tab 0 ratings
1 star 2 stars 3 stars 4 stars 5 stars
comments

One Fine Day Tab

Group: Offspring
Album: Conspiracy Of One
Released: 2000 columbia records
Track: 9
Title: one fine day

pm - palm mute
: - let ring


intro - clean
pm________________________________________________________________________________
|---------------------------------------------------------------------------------
|---------------------------------------------------------------------------------
|-8-8-8-8-8-8-8-8-6-6-6-6-6-6-6-6-----------------8-8-8-8-8-8-8-8-4-4-4-4-4-4-4-4-
|-8-8-8-8-8-8-8-8-6-6-6-6-6-6-6-6-4-4-4-4-4-4-4-4-8-8-8-8-8-8-8-8-4-4-4-4-4-4-4-4-
|-6-6-6-6-6-6-6-6-4-4-4-4-4-4-4-4-4-4-4-4-4-4-4-4-6-6-6-6-6-6-6-6-2-2-2-2-2-2-2-2-
|---------------------------------2-2-2-2-2-2-2-2---------------------------------
_________________________________________|
-----------------------------------------|
-----------------------------------------|
-6-6-6-6-6-6-6-6-------------------------|
-6-6-6-6-6-6-6-6-4-4-4-4-4-4-4-4-4-4-4-4-|
-4-4-4-4-4-4-4-4-4-4-4-4-4-4-4-4-4-4-4-4-|
-----------------2-2-2-2-2-2-2-2-2-2-2-2-|

verse - also played again after verse 2 with palm mute

|----------------------------------------------------------------------------------|
|----------------------------------------------------------------------------------|
|-4-4-4-4-4-4-6-6-6-6-6-6-------------8-8-8-8-8-8--------------------6--6--6-6-6-6-|
|-4-4-4-4-4-4-6-6-6-6-6-6-8-8-8-8-8-8-8-8-8-8-8-8-6--6-6-6-6-6-6-6-6-6--6--6-6-6-6-|
|-2-2-2-2-2-2-4-4-4-4-4-4-8-8-8-8-8-8-6-6-6-6-6-6-6--6-6-6-6-6-6-6-6-4--4--4-4-4-4-|
|-------------------------6-6-6-6-6-6-------------4--4-4-4-4-4-4-4-4---------------|

chorus

|--------------------------------------------------------------------------
|--------------------------------------------------------------------------
|-------------4-4-4-4-4-4-6-6-6-6-6-6--------------------------4-4-4-4-4-4-
|-4-4-4-4-4-4-4-4-4-4-4-4-6-6-6-6-6-6-4-4-4-4-4-4--4-4-4-4-4-4-4-4-4-4-4-4-
|-4-4-4-4-4-4-2-2-2-2-2-2-4-4-4-4-4-4-4-4-4-4-4-4--4-4-4-4-4-4-2-2-2-2-2-2-
|-2-2-2-2-2-2-------------------------2-2-2-2-2-2--2-2-2-2-2-2-------------
[ Tab from: http://www.guitartabs.cc/tabs/o/offspring/one_fine_day_tab_ver_5.html ]
------------------------|
------------------------|
-6-6-6-6-6-6-11--11--11-|
-6-6-6-6-6-6-11--11--11-|
-4-4-4-4-4-4--9---9---9-|
------------------------|

riff

|--------------------------------------------------------------------------------|
|--------------------------------------------------------------------------------|
|--------------------------------------------------------------------------------|
|-------4-----------1-4--------3-6-4--------4----------1-4--------3-6-8-6-4------|
|----------4--2-2-2------4-4-4----------------4--2-2-2------4-4-4-----------4:---|
|-2-2-2-------------------------------2-2-2--------------------------------------|

verse 2
pm________________________________________________________________
|-----------------------------------------------------------------
|-----------------------------------------------------------------
|-4-4-4-4-4-4-4-4-6-6-6-6-6-6-6-6-----------------8-8-8-8-8-8-8-8-
|-4-4-4-4-4-4-4-4-6-6-6-6-6-6-6-6-4-4-4-4-4-4-4-4-8-8-8-8-8-8-8-8-
|-2-2-2-2-2-2-2-2-4-4-4-4-4-4-4-4-4-4-4-4-4-4-4-4-6-6-6-6-6-6-6-6-
|---------------------------------2-2-2-2-2-2-2-2-----------------
_________________________________________________________________|
-----------------------------------------------------------------|
-----------------------------------------------------------------|
-4-4-4-4-4-4-4-4-6-6-6-6-6-6-6-6---------------------------------|
-4-4-4-4-4-4-4-4-6-6-6-6-6-6-6-6-4-4-4-4-4-4-4-4-4-4-4-4-4-4-4-4-|
-2-2-2-2-2-2-2-2-4-4-4-4-4-4-4-4-4-4-4-4-4-4-4-4-4-4-4-4-4-4-4-4-|
---------------------------------2-2-2-2-2-2-2-2-2-2-2-2-2-2-2-2-|

bridge
pm______________________________________________________________________________________|
|---------------------------------------------------------------------------------------|
|---------------------------------------------------------------------------------------|
|---------------4--4--4-4-6--6--6-6-6-6-------------------4--4--4-4-6--6--6-6-6-6-11-11-|
|-4--4--4-4-4-4-4--4--4-4-6--6--6-6-6-6-4-4-4--4--4-4-4-4-4--4--4-4-6--6--6-6-6-6-11-11-|
|-4--4--4-4-4-4-2--2--2-2-4--4--4-4-4-4-4-4-4--4--4-4-4-4-2--2--2-2-4--4--4-4-4-4--9--9-|
|-2--2--2-2-2-2-------------------------2-2-2--2--2-2-2-2-------------------------------|

outro

|-----------------|
|-----------------|
|-6--6--6-6-6-6---|
|-6--6--6-6-6-6-4-|
|-4--4--4-4-4-4-4-|
|---------------2-|
Comments