Offspring - One Fine Day Chords & Tabs

 

One Fine Day Chords & Tabs

Offspring Chords & Tabs

Version: 4 Type: Tab 0 ratings
1 star 2 stars 3 stars 4 stars 5 stars
comments

One Fine Day Tab

Whats up my names Andy... I put a tab on this site before and it really sucked and 
everyone hated it :o(.... but who the fuck cares because nobody has tabbed this song 
yet and i put a lot of time into learning how to play it.... so i hope its right... 
and if its not.... well...i cant help ya then...so just e-mail me with any problems 
or concerns at Pabo691@aol.com

peace 'n love


note:
* = strum 8x
pm= palm mute
/ = slide
: = let ring

Intro:
   
e|--------------------------------------------------
B|--------------------------------------------------
G|-11-----------11----------------------------------
D|-11-9-11-13---11-13-11----------------------------
A|--9-9-11-13----9-13-11----------------------------
E|----7--9-11------11--9----------------------------
 PM----------| PM--------|
riff1:
          *              *  * 
e|--------------------------------------------------
B|--------------------------------------------------
G|-10/11-11----------11-11-----11-11-11-------------
D|-10/11-11-9-11-13--11-11-13--11-11-11-9-11-13-----
A|--8/-9--9-9-11-13---9--9-13---9--9--9-9-11-13-----
E|----------7--9-11--------11-----------7--9-11-----
 PM                     |-----|

Chorus (2x):
    * *  *  *    *  * **
e|--------------------------------------------------
B|--------------------------------------------------
G|-11-----------11----------------------------------
D|-11-9-11-13---11-13-11----------------------------
A|--9-9-11-13----9-13-11----------------------------
E|----7--9-11------11--9----------------------------

solo:
e|--------------------------------------------------
B|--------------------------------------------------
G|-----------------------------------1--------------
D|--------4-4-1----------1-4------1-3---4-4-4-4-----
A|--------------4-2-2--4------4-4-------------------
E|-2-2--2-------------------------------------------
solo part2:
e|--------------------------------------------------
B|--------------------------------------------------
G|-----------------------------------1-1/3-1--------
D|--------4-4-1----------1-4------1-3---------4-1---
A|--------------4-2-2--4------4-4-----------------4-
E|-2-2--2-------------------------------------------

bridge:
e|--------------------------------------------------
B|--------------------------------------------------
G|-11:----------------------------------------------
D|-11:----------------------------------------------
A|--9:----------------------------------------------
E|--------------------------------------------------
[ Tab from: http://www.guitartabs.cc/tabs/o/offspring/one_fine_day_tab_ver_4.html ]
Intro:
    * *  *  *    *  * **
e|--------------------------------------------------
B|--------------------------------------------------
G|-11-----------11----------------------------------
D|-11-9-11-13---11-13-11----------------------------
A|--9-9-11-13----9-13-11----------------------------
E|----7--9-11------11--9----------------------------
 PM----------|  PM------|
Chorus (2x):
    * *  *  *    *  * **
e|--------------------------------------------------
B|--------------------------------------------------
G|-11-----------11----------------------------------
D|-11-9-11-13---11-13-11----------------------------
A|--9-9-11-13----9-13-11----------------------------
E|----7--9-11------11--9----------------------------

solo:
e|--------------------------------------------------
B|--------------------------------------------------
G|-----------------------------------1--------------
D|--------4-4-1----------1-4------1-3---4-4-4-4-----
A|--------------4-2-2--4------4-4-------------------
E|-2-2--2-------------------------------------------
solo part2:
e|--------------------------------------------------
B|--------------------------------------------------
G|-----------------------------------1-1/3-1--------
D|--------4-4-1----------1-4------1-3---------4-1---
A|--------------4-2-2--4------4-4----------------4--
E|-2-2--2-------------------------------------------

bridge:
e|--------------------------------------------------
B|--------------------------------------------------
G|-11:----------------------------------------------
D|-11:----------------------------------------------
A|--9:----------------------------------------------
E|--------------------------------------------------

riff2 (4x):
e|--------------------------------------------------
B|--------------------------------------------------
G|-11-11-11-------------------------------13--------
D|-11-11-11-9-9-9-9-9-9-11-11-11-13-13-13-13-13-13--
A|--9--9--9-9-9-9-9-9-9-11-11-11-13-13-13-11-13-13--
E|----------7-7-7-7-7-7--9--9--9-11-11-11----11-11--

Chorus (2x):
    * *  *  *    *  * **
e|--------------------------------------------------
B|--------------------------------------------------
G|-11-----------11----------------------------------
D|-11-9-11-13---11-13-11----------------------------
A|--9-9-11-13----9-13-11----------------------------
E|----7--9-11------11--9----------------------------

outro
            *           *
e|--------------------------------------------------
B|--------------------------------------------------
G|-11-11-11---------------11-11------9--------------
D|-11-11-11-9-11-11-11-13-11-11-9-11-9-9:-----------
A|--9--9--9-9-11-11-11-13--9--9-9-11-7-9:-----------
E|----------7--9--9--9-11-------7--9---7:-----------
----------------------------------------------------

There you go people, I hope you enjoy it bc i damn sure do... and if its bad 
dont put comments on how much you hate it, just mail me and tell me yourself 
how much you hate it.....or like it (if you do)

peace out

have fun
Comments