Offspring - One Fine Day Chords & Tabs

 

One Fine Day Chords & Tabs

Offspring Chords & Tabs

Version: 3 Type: Tab 0 ratings
1 star 2 stars 3 stars 4 stars 5 stars
comments

One Fine Day Tab

One Fine Day by The Offspring. Album : The Offspring - Conspiracy of One (2000)
Any Questions Comments send me to briets@email.ru
:
# Intro #   *=play X8 with palm-mute!
E-------------------------------------------------------------------------------------------|
B----------*-------------*------*------*----------------------------------------------------|
G---*-----6-------*-----8------4------6-------*------*-----4---6-------8-----*-6--6--6-6-6--|
D--4------6------4------8------4------6------4------4------4---6---8---8--6-6--6--6--6-6-6--|
A--4------4------4------6------2------4------4------4------2---4---8---6--6-6--4--4--4-4-4--|
E--2-------------2---------------------------2------2--------------6------4-4---------------|
>
# Chorus #  play X2   *=play X8 
E---------------------------------------------------------------|
B----------*------*---------------------*------*----------------|
G---*-----4------6-------*-------*-----4------6------11-11-11---|
D--4------4------6------4-------4------4------6------11-11-11---|
A--4------2------4------4-------4------2------4-------9--9--9---|
E--2--------------------2-------2-------------------------------|
>
# Mini solo #
E-------------------------------------------------------------------------------------------|
B-------------------------------------------------------------------------------------------|
G-------------------------------------------------------------------------------------------|
D---------4-1-1-------1-4--------3-6-4-4-4-4---------4-1-1------1-4--------3-6-6/8-6-4------|
A--------------4-2--4------4-4-6--------------------------4-2--4-----4-4-6-------------6-4--|
E--2-2--2-------------------------------------2-2--2----------------------------------------|
>
# Verse2 #        *=play X8 with palm-mute!  #=play X12 with palm-mute!
E----------------------------------------------------------------------------------|
B---*----*---------*-----*----*---------------*----*---------*---------------------|
G--4----6-----*---8-----4----6-----*-----*---4----6-----*---8-----#---6--6--6-6-6--|
D--4----6----4----8-----4----6----4-----4----4----6----8----8----6----6--6--6-6-6--|
A--2----4----4----6-----2----4----4-----4----2----4----8----6----6----4--4--4-4-4--|
E------------2--------------------2-----2--------------6---------4-----------------|
>
Play # Chorus # X2, # Mini solo #, # Bridge(Chorus sometimes use palm-mute) # X2, # Chorus # X2 
>
# Outro #
E----------------------------------------|
B----------------------------------------|
G--6-6-6-6-6-6-11-11-11-6--6--6-6-6-6----|
D--6-6-6-6-6-6-11-11-11-6--6--6-6-6-6-4--|
A--4-4-4-4-4-4--9--9--9-4--4--4-4-4-4-4--|
E-------------------------------------2--|
:
:
Tabbed by Briets(Andrei),
Tnx to the Goldsmith.
[ Tab from: http://www.guitartabs.cc/tabs/o/offspring/one_fine_day_tab_ver_3.html ]
Comments