Offspring - One Fine Day Chords & Tabs

 

One Fine Day Chords & Tabs

Offspring Chords & Tabs

Version: 1 Type: Tab 1 rating
1 star 2 stars 3 stars 4 stars 5 stars
comments

One Fine Day Tab

#----------------------------------PLEASE NOTE--------------------------------#
#This file is the author's own work and represents their interpretation of the#
#song. You may only use this file for private study, scholarship, or research.#
#-----------------------------------------------------------------------------#
#-- File created with Instab - http://www.pconline.com/~smcarey/instab.html --#
#-----------------------------------------------------------------------------#

Author/Artist: Offspring
Title: One Fine Day
Album: Conspiracy of One
Transcribed by: mU iS cO o
Email: muhuac@hotmail.com

¬°New Offspring song!

------------------------------------------------------------------------------
-------------------------------------------------4-4-4-4-4-4-4-4--------------
-4-4-4-4-4-4-4-4-6-6-6-6-6-6-6-6-----------------3-3-3-3-3-3-3-3--------------
-4-4-4-4-4-4-4-4-6-6-6-6-6-6-6-6-4-4-4-4-4-4-4-4-1-1-1-1-1-1-1-1--------------
-2-2-2-2-2-2-2-2-4-4-4-4-4-4-4-4-4-4-4-4-4-4-4-4------------------------------
---------------------------------2-2-2-2-2-2-2-2------------------------------
 palm muted                                                                   

------------------------------------------------------------------------------
------------------------------------------------------------------------------
-4-4-4-4-4-4-4-4-6-6-6-6-6-6-6-6----------------------------------------------
-4-4-4-4-4-4-4-4-6-6-6-6-6-6-6-6-4-4-4-4-4-4-4-4-4-4-4-4-4-4-4-4--------------
-2-2-2-2-2-2-2-2-4-4-4-4-4-4-4-4-4-4-4-4-4-4-4-4-4-4-4-4-4-4-4-4--------------
---------------------------------2-2-2-2-2-2-2-2-2-2-2-2-2-2-2-2--------------
 palm muted                                                                   

------------------------------------------------------------------------------
-------------4-4--------------------------------------------------------------
-4-4/6-6/3-3-3-3-------------------------------6---6---6-6-6------------------
-4-4/6-6/3-3-1-1-6-6-6-6-6-6-6-6-6-6-6-6-6-6-6-6---6---6-6-6------------------
-2-2/4-4/1-1-----6-6-6-6-6-6-6-6-6-6-6-6-6-6-6-4---4---4-4-4------------------
-----------------4-4-4-4-4-4-4-4-4-4-4-4-4-4-4--------------------------------
                  |      palm muted         |                                 

------------------------------------------------------------------------------
------------------------------------------------------------------------------
-----------------4-4-4-4-4-4-4-4-6-6-6-6-6-6-6-6------------------------------
-4-4-4-4-4-4-4-4-4-4-4-4-4-4-4-4-6-6-6-6-6-6-6-6-4-4-4-4-4-4-4-4--------------
-4-4-4-4-4-4-4-4-2-2-2-2-2-2-2-2-4-4-4-4-4-4-4-4-4-4-4-4-4-4-4-4--------------
-2-2-2-2-2-2-2-2---------------------------------2-2-2-2-2-2-2-2--------------
                                                                              

------------------------------------------------------------------------------
-------------------------------------------------7---7---7--------------------
-----------------4-4-4-4-4-4-4-4-6-6-6-6-6-6-6-6-6---6---6--------------------
-4-4-4-4-4-4-4-4-4-4-4-4-4-4-4-4-6-6-6-6-6-6-6-6-4---4---4--------------------
-4-4-4-4-4-4-4-4-2-2-2-2-2-2-2-2-4-4-4-4-4-4-4-4------------------------------
-2-2-2-2-2-2-2-2--------------------------------------------------------------
 Play these two lines 2x                                                      

------------------------------------------------------------------------------
------------------------------------------------------------------------------
------------------------------------------------------------------------------
-------4-1---------1-4-------3-6-4-4-4-4--------------------------------------
-----------4-2-2-4-----4-4-6--------------------------------------------------
-2-2-2------------------------------------------------------------------------
                                                                              

------------------------------------------------------------------------------
------------------------------------------------------------------------------
------------------------------------------------------------------------------
-------4-1---------1-4-------3-6-7b8-6-4--------------------------------------
-----------4-2-2-4-----4-4-6-------------6-4----------------------------------
-2-2-2------------------------------------------------------------------------
                                                                              

------------------------------------------------------------------------------
-------------------------------------------------4-4-4-4-4-4-4-4--------------
-4-4-4-4-4-4-4-4-6-6-6-6-6-6-6-6-----------------3-3-3-3-3-3-3-3--------------
-4-4-4-4-4-4-4-4-6-6-6-6-6-6-6-6-4-4-4-4-4-4-4-4-1-1-1-1-1-1-1-1--------------
-2-2-2-2-2-2-2-2-4-4-4-4-4-4-4-4-4-4-4-4-4-4-4-4------------------------------
---------------------------------2-2-2-2-2-2-2-2------------------------------
 palm muted                                                                   
[ Tab from: http://www.guitartabs.cc/tabs/o/offspring/one_fine_day_tab.html ]
------------------------------------------------------------------------------
------------------------------------------------------------------------------
-4-4-4-4-4-4-4-4-6-6-6-6-6-6-6-6----------------------------------------------
-4-4-4-4-4-4-4-4-6-6-6-6-6-6-6-6-4-4-4-4-4-4-4-4-4-4-4-4-4-4-4-4--------------
-2-2-2-2-2-2-2-2-4-4-4-4-4-4-4-4-4-4-4-4-4-4-4-4-4-4-4-4-4-4-4-4--------------
---------------------------------2-2-2-2-2-2-2-2-2-2-2-2-2-2-2-2--------------
 palm muted                                                                   

------------------------------------------------------------------------------
-------------------------------------------------4-4-4-4-4-4-4-4--------------
-4-4-4-4-4-4-4-4-6-6-6-6-6-6-6-6-3-3-3-3-3-3-3-3-3-3-3-3-3-3-3-3--------------
-4-4-4-4-4-4-4-4-6-6-6-6-6-6-6-6-3-3-3-3-3-3-3-3-1-1-1-1-1-1-1-1--------------
-2-2-2-2-2-2-2-2-4-4-4-4-4-4-4-4-1-1-1-1-1-1-1-1------------------------------
------------------------------------------------------------------------------
 palm muted                                                                   

---------------------------------|--------------------------------------------
---------------------------------|--------------------------------------------
---------------------------------|-6t--6t--6-6-6------------------------------
-6-6-6-6-6-6-6-6-6-6-6-6-6-6-6-6-|-6t--6t--6-6-6------------------------------
-6-6-6-6-6-6-6-6-6-6-6-6-6-6-6-6-|-4t--4t--4-4-4------------------------------
-4-4-4-4-4-4-4-4-4-4-4-4-4-4-4-4-|--------------------------------------------
         palm muted              |                                            

------------------------------------------------------------------------------
------------------------------------------------------------------------------
-----------------4-4-4-4-4-4-4-4-6-6-6-6-6-6-6-6------------------------------
-4-4-4-4-4-4-4-4-4-4-4-4-4-4-4-4-6-6-6-6-6-6-6-6-4-4-4-4-4-4-4-4--------------
-4-4-4-4-4-4-4-4-2-2-2-2-2-2-2-2-4-4-4-4-4-4-4-4-4-4-4-4-4-4-4-4--------------
-2-2-2-2-2-2-2-2---------------------------------2-2-2-2-2-2-2-2--------------
                                                                              

------------------------------------------------------------------------------
-------------------------------------------------7---7---7--------------------
-----------------4-4-4-4-4-4-4-4-6-6-6-6-6-6-6-6-6---6---6--------------------
-4-4-4-4-4-4-4-4-4-4-4-4-4-4-4-4-6-6-6-6-6-6-6-6-4---4---4--------------------
-4-4-4-4-4-4-4-4-2-2-2-2-2-2-2-2-4-4-4-4-4-4-4-4------------------------------
-2-2-2-2-2-2-2-2--------------------------------------------------------------
 Play these two lines 2x                                                      

------------------------------------------------------------------------------
------------------------------------------------------------------------------
------------------------------------------------------------------------------
-------4-1---------1-4-------3-6-4-4-4-4--------------------------------------
-----------4-2-2-4-----4-4-6--------------------------------------------------
-2-2-2------------------------------------------------------------------------
                                                                              

------------------------------------------------------------------------------
------------------------------------------------------------------------------
------------------------------------------------------------------------------
-------4-1---------1-4-------3-6-7b8-6-4--------------------------------------
-----------4-2-2-4-----4-4-6-------------6-4----------------------------------
-2-2-2------------------------------------------------------------------------
                                                                              

-----------------|------------------------------------------------------------
-----------------|-------------7-7--------------------------------------------
-----4-4-6-6-----|-----4-4-6-6-6-6--------------------------------------------
-4-4-4-4-6-6-4-4-|-4-4-4-4-6-6-4-4--------------------------------------------
-4-4-2-2-4-4-4-4-|-4-4-2-2-4-4------------------------------------------------
-2-2---------2-2-|-2-2--------------------------------------------------------
 Play both these parts 2x palm muted                                          

------------------------------------------------------------------------------
------------------------------------------------------------------------------
-----------------4-4-4-4-4-4-4-4-6-6-6-6-6-6-6-6------------------------------
-4-4-4-4-4-4-4-4-4-4-4-4-4-4-4-4-6-6-6-6-6-6-6-6-4-4-4-4-4-4-4-4--------------
-4-4-4-4-4-4-4-4-2-2-2-2-2-2-2-2-4-4-4-4-4-4-4-4-4-4-4-4-4-4-4-4--------------
-2-2-2-2-2-2-2-2---------------------------------2-2-2-2-2-2-2-2--------------
                                                                              

------------------------------------------------------------------------------
-------------------------------------------------7---7---7--------------------
-----------------4-4-4-4-4-4-4-4-6-6-6-6-6-6-6-6-6---6---6--------------------
-4-4-4-4-4-4-4-4-4-4-4-4-4-4-4-4-6-6-6-6-6-6-6-6-4---4---4--------------------
-4-4-4-4-4-4-4-4-2-2-2-2-2-2-2-2-4-4-4-4-4-4-4-4------------------------------
-2-2-2-2-2-2-2-2--------------------------------------------------------------
 Play these two lines 2x                                                      

------------------------------------------------------------------------------
-----------------7---7---7----------------------------------------------------
-6-6-6-6-6-6-6-6-6---6---6-6---6---6-6---6------------------------------------
-6-6-6-6-6-6-6-6-4---4---4-6---6---6-6---6-4----------------------------------
-4-4-4-4-4-4-4-4-----------4---4---4-4---4-4----------------------------------
-------------------------------------------2----------------------------------
                                                                              

Comments