Offspring - Nothing From Something Chords & Tabs

 

Nothing From Something Chords & Tabs

Offspring Chords & Tabs

Version: 2 Type: Bass Tab 0 ratings
1 star 2 stars 3 stars 4 stars 5 stars
comments

Nothing From Something Bass Tab

Subject:- Nothing For Something Bass Tabs
Artist:- The Offspring
Album:- Ignition
Tabbed By Big JC (acegolfer@clark6969.fsnet.co.uk) member of the Bass Tab 
Archive

Ok here are the bass tabs for "Nothing for Something" by The Offspring from the Album "Ignition". OK enough talking lets go.

Intro Play once (*=play about 8x)
G|-----------------------------|---------------------------------|
D|---*-------*-*---------*-----|---*-------*-*---------*---------|
A|-7-7-5-7-7-7-7-5-5-5-5-5-7-7-|-7-7-5-7-7-7-7-5-5-5-5-5---------|
E|-----------------------------|-------------------------7-7-7-7-|

G|-----------------------------|-------------------|
D|---*-------*-*---------*-----|-------------------|
A|-7-7-5-7-7-7-7-5-5-5-5-5-7-7-|--------------*-*--|
E|-----------------------------|-8--8-8/7/10-|
[ Tab from: http://www.guitartabs.cc/tabs/o/offspring/nothing_from_something_btab_ver_2.html ]
Pre Verse/Verse:- play once before verse, then 3x with each verse
G|----------------------------------|-------------------------------|
D|-----*----------------------------|-----*---------------*---------|
A|-7-7-7-5-5-5-5-5------*-7-7-7-7-7-|-7-7-7-----------5-5-5---------|
E|------------------5-5-5-----------|-------8-8-8-8-8-------7-7-7-7-|

Chorus:- Play 4x
G|--------------------------------|
D|----------------------*---------|
A|-7-7-7-7-9-10-9-5-5-5-5---------|
E|------------------------7-7-7-7-|

Repeat the intro, play the verse again,the chorus again, then the Bridge.
For The Bridge just play an open "E" every time Noodles playes one. This is when Greg plays the "E" at the same time. You will have listen to the CD VERY CAREFULLY!!!!!

After this play the chorus over the solo till it fits then play the chorus and then play the outro.

outro:- palm mute the whole thing!!!
G|--------------------------------------------------------|
D|--------------------------------------------------------|
A|-3-3-3-3-3-3-3-3--5-5-5-5-5-5-5-5-----------------------|
E|-------------------------------------0--|
Comments