Offspring - No Hero Chords & Tabs

 

No Hero Chords & Tabs

Offspring Chords & Tabs

Version: 2 Type: Bass Tab 0 ratings
1 star 2 stars 3 stars 4 stars 5 stars
comments

No Hero Bass Tab

Song:No Hero
Band:The Offspring
Album:Ignition
tabbed by:Nick Mighall

Listen to cd for rhythm


Intro/Verse

G:---------------------------------------------------------------
D:---------------------------------------------------------------
A:-----9-10-10-5-5-5-7-7-------5-5-------------------------------
E:-7-7-------------------5-5-5-----7-7-7-7-7---------------------

Pre-Chorus(second guess...)

G:---------------------------------------------------------------
D:---------------------------------------------------------------
A:-7-7-7-7-------------------------7-7-7-7---------9-9-9-9-9-9---
E:---------7-7-7-7-2-2-2-2-7-7-7-7---------7-7-7-7---------------

Chorus                    End of chorus
[ Tab from: http://www.guitartabs.cc/tabs/o/offspring/no_hero_btab_ver_2.html ]
G:----------------------|-----------------------------------------
D:----------------------|-----------------------------------------
A:-10-10-10-5-7-7-7-7---|-9-9-9-9-9-------------------------------
E:----------------------|-----------------------------------------

Bridge                  I said it don't really mean a thing...

G:-------------------|--------------------------------------------
D:-------------------|--5-5-5-5-4-4-4-4---------------------------
A:-2-2---------4-5---|--------------------------------------------
E:-----2-2-5-5-------|--------------------------------------------


End on A-9-


One of the offsprings best song so enjoy!


Questions,comments,corrections? nickmighall182@hotmail.com
Comments