Offspring - No Brakes Chords & Tabs

 

No Brakes Chords & Tabs

Offspring Chords & Tabs

Version: 4 Type: Tab 0 ratings
1 star 2 stars 3 stars 4 stars 5 stars
comments

No Brakes Tab

Offspring
No Brakes

Karl Gale
Whosontop2nite@hotmail.com


Intro 1

E|----------------------------------------------|
B|----------------------------------------------|
G|----------------------------------------------|
D|--14---14\4---4/5---5/17-17-17-17-16---17-----|
A|--14---14\4---4/5---5/17-17-17-17-16---17-----|
D|--14---14\4---4/5---5/17-17-17-17-16---17-----|


Intro 2 

E|----------------------------------------------------------------------------|
B|----------------------------------------------------------------------------|
G|----------------------------------------------------------------------------|
D|--14-XXX-XXX-XXX-14\4-XXX-XXX-XXX-4/5-XXX-XXX-XXX-5/17-17-17-17-16---17-----|
A|--14-XXX-XXX-XXX-14\4-XXX-XXX-XXX-4/5-XXX-XXX-XXX-5/17-17-17-17-16---17-----|
D|--14-XXX-XXX-XXX-14\4-XXX-XXX-XXX-4/5-XXX-XXX-XXX-5/17-17-17-17-16---17-----|


Pre-chorus
[ Tab from: http://www.guitartabs.cc/tabs/o/offspring/no_brakes_tab_ver_4.html ]
E|-------------------------------------|
B|-------------------------------------|
G|-------------------------------------|
D|-5-5--12-12--10-10---10-9-10--12-----|
A|-5-5--12-12--10-10---10-9-10--12-----|
D|-5-5--12-12--10-10---10-9-10--12-----|


Chorus

E|-------------------------------------------|
B|-------------------------------------------|
G|--9-7-9--12-12-11---9-7-9--14-14-12--------|
D|--9-7-9--12-12-11---9-7-9--14-14-12--------|
A|--7-5-7--10-10--9---7-5-7--12-12-10--------|
D|-------------------------------------------|


This is the order in which to play it:

Intro 1    (x2)
Intro 2    (x2)
Pre-Chorus (x2)
Chorus     (x2)
Intro 1    (x2)
Intro 2    (x2)
Pre-Chorus (x2)
Chorus     (x2)
(Pause)
Chorus     (x2)
Pre-chorus (x4)
Chorus     (x1)


End song on:

E|-----------------------------------|
B|-----------------------------------|
G|--9-7-9--12-12-11--9-7-9-----------|
D|--9-7-9--12-12-11--9-7-9-----------|
A|--7-5-7--10-10--9--7-5-7-----------|
D|-----------------------------------|
Comments