Offspring - No Brakes Chords & Tabs

 

No Brakes Chords & Tabs

Offspring Chords & Tabs

Version: 3 Type: Tab 0 ratings
1 star 2 stars 3 stars 4 stars 5 stars
comments

No Brakes Tab

The Offspring
No Brakes

Karl Gale
Whosontop2nite@hotmail.com

Intro 1

E|----------------------------------------------|
B|----------------------------------------------|
G|----------------------------------------------|
D|--10---10\5---5/7---7/12-12-12-12-10---12-----|
A|--10---10\5---5/7---7/12-12-12-12-10---12-----|
D|--10---10\5---5/7---7/12-12-12-12-10---12-----|


Intro 2 

E|----------------------------------------------------------------------------|
B|----------------------------------------------------------------------------|
G|----------------------------------------------------------------------------|
D|--10-XXX-XXX-XXX-10\5-XXX-XXX-XXX-5/7-XXX-XXX-XXX-7/12-12-12-12-10---12-----|
A|--10-XXX-XXX-XXX-10\5-XXX-XXX-XXX-5/7-XXX-XXX-XXX-7/12-12-12-12-10---12-----|
D|--10-XXX-XXX-XXX-10\5-XXX-XXX-XXX-5/7-XXX-XXX-XXX-7/12-12-12-12-10---12-----|


Pre-chorus
[ Tab from: http://www.guitartabs.cc/tabs/o/offspring/no_brakes_tab_ver_3.html ]
E|-------------------------------------|
B|-------------------------------------|
G|-------------------------------------|
D|-5-5--12-12--10-10---10-9-10--12-----|
A|-5-5--12-12--10-10---10-9-10--12-----|
D|-5-5--12-12--10-10---10-9-10--12-----|


Chorus

E|-------------------------------------------|
B|-------------------------------------------|
G|-10-8-10--13-13-12--10-8-10--15-15-13------|
D|-10-8-10--13-13-12--10-8-10--15-15-13------|
A|--8-6--8--11-11-10---8-6--8--13-13-11------|
D|-------------------------------------------|


This is the order in which to play it:

Intro 1    (x2)
Intro 2    (x2)
Pre-Chorus (x2)
Chorus     (x2)
Intro 1    (x2)
Intro 2    (x2)
Pre-Chorus (x2)
Chorus     (x2)
(Pause)
Chorus     (x2)
Pre-chorus (x4)
Chorus     (x1)


End song on:

E|-----------------------------------|
B|-----------------------------------|
G|-10-8-10--13-13-12--10-8-10--------|
D|-10-8-10--13-13-12--10-8-10--------|
A|--8-6--8--11-11-10---8-6--8--------|
D|-----------------------------------|
Comments