Offspring - No Brakes Chords & Tabs

 

No Brakes Chords & Tabs

Offspring Chords & Tabs

Version: 1 Type: Tab 0 ratings
1 star 2 stars 3 stars 4 stars 5 stars
comments

No Brakes Tab

#----------------------------------PLEASE NOTE---------------------------------#
#This file is the author's own work and represents their interpretation of the #
#song. You may only use this file for private study, scholarship, or research. #
#------------------------------------------------------------------------------#



Offspring - No Brakes


/ - Slide Up
b - Bend

Verse

e|-------------------------------------------|
B|-------------------------------------------|
G|-9-9---9---------------12-12-12-12-11/12---|
D|-9-9---9-5-5---5/7-7---12-12-12-12-11/12---|
A|-7-7---7-5-5---5/7-7---10-10-10-10--9/10---|
E|---------3-3---3/5-5-----------------------|

Chorus
[ Tab from: http://www.guitartabs.cc/tabs/o/offspring/no_brakes_tab.html ]
e|--------------------------------------------------|
B|--------------------------------------------------|
G|------------7--7-7-7-7-5--5-5-5-5-5-4-5-7---------|
D|-5--5-5-5-5-7--7-7-7-7-5--5-5-5-5-5-4-5-7---------|
A|-5--5-5-5-5-5--5-5-5-5-3--3-3-3-3-3-2-3-5---------|
E|-3--3-3-3-3---------------------------------------|

Brigde
e|--------------------------------------|
B|--------------------------------------|
G|-9-7-9-12-12-11--9-7-9-14-14b-12------|
D|-9-7-9-12-12-11--9-7-9-14-14b-12------|
A|-7-5-7-10-10--9--7-5-7-12-12b-10------|
E|--------------------------------------|

Order:

Verse x4
Chorus x2
Bridge x2
Verse x4
Chorus x2
Bridge x4

Rest

Bridge x4
Chorus x4
Bridge x4
Comments