Offspring - No Brakes Chords & Tabs

 

No Brakes Chords & Tabs

Offspring Chords & Tabs

Version: 1 Type: Chords 0 ratings
1 star 2 stars 3 stars 4 stars 5 stars
comments

No Brakes Chords

#----------------------------------PLEASE NOTE---------------------------------#
#This file is the author's own work and represents their interpretation of the #
#song. You may only use this file for private study, scholarship, or research. #
#------------------------------------------------------------------------------#

OFFSPRING - NO BRAKES
AMERICANA

RIFF
[ Tab from: http://www.guitartabs.cc/tabs/o/offspring/no_brakes_crd.html ]
E||----------------------------
A||----------------------------
D||-9----9------------12--11-12
G||-9----75----57----710--11-10
B||-7----73----57----710---9-10
E||-------3----35----5---------

PRE CHORUS

E||-----------------
A||-----------------
D||--------7-------5
G||-5------7-------5
B||-5------5-------3
E||-3---------------

CHORUS

E||---------?---------?
A||---------?---------?
D||-9--7--9-?-9--7--9-?
G||-9--7--9-?-9--7--9-?
B||-7--5--7-?-7--5--7-?
E||---------?---------?

BRUG

E||-----
A||-----
D||-----
G||-9---
B||-7---
E||-7---

              _ 
RIFF        4X |   
PRE CHORUS  2X |-  2X
CHORUS      2X_|

BRUG        1X
CHORUS      2X
PRE CHORUS  4X
CHORUS      2X
Comments