Offspring - No Brakes Chords & Tabs

 

No Brakes Chords & Tabs

Offspring Chords & Tabs

Version: 2 Type: Bass Tab 0 ratings
1 star 2 stars 3 stars 4 stars 5 stars
comments

No Brakes Bass Tab

#----------------------------------PLEASE NOTE---------------------------------#
#This file is the author's own work and represents their interpretation of the #
#song. You may only use this file for private study, scholarship, or research. #
#------------------------------------------------------------------------------##

Song:No Brakes
Artist:The Offspring
Tabbed by:Ronny Ø
[ Tab from: http://www.guitartabs.cc/tabs/o/offspring/no_brakes_btab_ver_2.html ]
verse
G:--------------------------------------|
D:--------------------------------------|
A:----------------------3-3-3-3-5-5-5-5-|
E:0-0-0--0-3-3-3-5-5--5-----------------|

chorus
G:--------------------------------|
D:--------------------------------|
A:--------5-5-5-5-3-3-3-3-3-3-0-5-|
E:3-3-3-3-------------------------|

end chorus
G:--------------------------|
D:--------5-5-4-------7-7-5-|
A:-7-5-7--------7-5-7-------|
E:--------------------------|
Comments