Offspring - Nitro Chords & Tabs

 

Nitro Chords & Tabs

Offspring Chords & Tabs

Version: 2 Type: Tab 0 ratings
1 star 2 stars 3 stars 4 stars 5 stars
comments

Nitro Tab

"Nitro"
by the Offspring
Off the album, Smash


intro

-------------------------------------------------------
-------------------------------------------------------
-10--10-10-10----13---10-8-10---------------8---8-8-8--
-10--10-10-10----13---10-8-10----6--6-6-6---8---8-8-8--
--8---8--8--8----11----8-6--8----6--6-6-6---6---6-6-6--
---------------------------------4--4-4-4--------------

verse

--------------------------------------------------------
--------------------------------------------------------
-10----------8----10---------8--8---10--------8---6---8-
-10----6-----8----10-----6---8--8---10----6---8---6---8-
--8----6-----6-----8-----6---6--6----8----6---6---4---6-
-------4-----------------4----------------4-------------

chorus

-----------------------------------------------------------------------
-----------------------------------------------------------------------
-10--10-10-10---------8--10--10-10-10----------8-----------------------
-10--10-10-10---5-6---8--10--10-10-10---5-6----8--6--6-6-6---8--8-8-8--
--8---8--8--8---5-6---6---8---8--8--8---5-6----6--6--6-6-6---8--8-8-8--
----------------3-4---------------------3-4-------4--4-4-4---6--6-6-6--

----------------------------------------
----------------------------------------
-6--6-6-6---8--10-----------------------
-6--6-6-6---8--10-----------------------
-4--4-4-4---6---8-----------------------
----------------------------------------

chorus 2 
[ Tab from: http://www.guitartabs.cc/tabs/o/offspring/nitro_tab_ver_2.html ]
------------------------------------------------
------------------------------------------------
-10--10-10-10--------------------------6---8----
-10--10-10-10----6--6-6-6---8--8-8-8---6---8----
--8---8--8--8----6--6-6-6---8--8-8-8---4---6----
-----------------4--4-4-4---6--6-6-6------------

rhythm 1

--------------------------------------------
--------------------------------------------
-10-10---------8-8---10-10---------8----8---
-10-10---6-6---8-8---10-10---6-6---8----8---
--8--8---6-6---6-6----8--8---6-6---6----6---
---------4-4-----------------4-4------------

rhythm 2

------------------------------------------------------------------
------------------------------------------------------------------
----------------------------------------------6--6-6-6---8--8-8-8-
-[3--3-3-3]----[6--6-6-6]-----[8--8-8-8]------6--6-6-6---8--8-8-8-
-[3--3-3-3]4x--[6--6-6-6]4x---[8--8-8-8]4x----4--4-4-4---6--6-6-6-
-[1--1-1-1]----[4--4-4-4]-----[6--6-6-6]--------------------------


-----------------------------------------------------
-----------------------------------------------------
--5-5-5----------------------------------------------
--5-5-5----6-6-6----8-8-8---3--3--3--6--3------------
--3-3-3----6-6-6----8-8-8---3--3--3--6--3------------
-----------4-4-4----6-6-6---1--1--1--4--1------------

------------------------------
------------------------------
-5-5-5-----------------6--8---
-5-5-5--6-6-6---8-8-8--6--8---
-3-3-3--6-6-6---8-8-8--4--6---
--------4-4-4---6-6-6---------

outro

----------------------------------------
-9---9----9----9----9----9--------------
--10---10---10---10---10---10-----------
----------------------------------------
----------------------------------------
----------------------------------------

Comments