Offspring - Next To You Chords & Tabs

 

Next To You Chords & Tabs

Offspring Chords & Tabs

Version: 1 Type: Tab 0 ratings
1 star 2 stars 3 stars 4 stars 5 stars
comments

Next To You Tab

   
-------------------------------------------------------------------------------
			     Next to You - The Offspring
-------------------------------------------------------------------------------
Tabbed by: Rankles

Tuning: Standard

This is the hidden track from the greatest hits album, and is a cover of a song by the Police.
It is pretty simple to play, although the solo can be tricky to make sound good.


Verse 1
              pm.-------------------|
e|---------------------------------------------------------------------------|
B|---------------------------------------------------------------------------|
G|--7-7------9-.-.-.-.-.-.-.-.-.-.-.-----------------------------------------|
D|--7-7-7-7--9-9-9-9-9-9-9-9-9-9-9-9-----------play this 7 times, then it----|
A|--5-5-7-7--7-7-7-7-7-7-7-7-7-7-7-7-----------stops before the e chords and-|
E|------5-5------------------------------------to chorus---------------------|

Chorus x 4 (what can I do)

e|---------------------------------------------------------------------------|
B|---------------------------------------------------------------------------|
G|-6-6-6-6-6-7-7-7-7-7-7-7-9-9-9-9-9-9-9-9-9-9-9-9-9-----4th time ignore last|
D|-6-6-6-6-6-7-7-7-7-7-7-7-9-9-9-9-9-9-9-9-9-9-9-9-9-----6 chords and cut----|
A|-4-4-4-4-4-5-5-5-5-5-5-5-7-7-7-7-7-7-7-7-7-7-7-7-7-----into verse again----|
E|---------------------------------------------------------------------------|

Play verse 4 times this time, then back into the chorus, only this time at the end, 
after he's stopped saying 'what can I do' and begins repeating 'all i want is to be next
to you', play this 2 and a half times.

Chorus 2
[ Tab from: http://www.guitartabs.cc/tabs/o/offspring/next_to_you_tab.html ]
e|---------------------------------------------------------------------------|
B|---------------------------------------------------------------------------|
G|--7-7-7-7-7-7-7-7-7-7-7-7-7-9-9-9-9-9-9-9-9-9-9-9-9------------------------|
D|--7-7-7-7-7-7-7-7-7-7-7-7-7-9-9-9-9-9-9-9-9-9-9-9-9------------------------|
A|--5-5-5-5-5-5-5-5-5-5-5-5-5-7-7-7-7-7-7-7-7-7-7-7-7------------------------|
E|---------------------------------------------------------------------------|

Solo Riff (palm muted)

e|---------------------------------------------------------------------------|
B|---------------------------------------------------------------------------|
G|---------------------------------------------------------------------------|
D|------5-5-3-2-------5-5-3-2---x2 then------7-7-5-4-------7-7-5-4--x2-------|
A|---------------------------------------5-5-----------5-5-------------------|
E|--3-3-----------3-3--------------------------------------------------------|

Solo

e|---------------------------------------------------------------------------|
B|---------------------------------------------------------------------------|
G|--3v~~~~~-3-----3-----5br------------5v-7(whammy bar up to 17)-------------|
D|------------5-3---5-3-----3-0-3v-0-3---------------------------------------|
A|---------------------------------------------------------------------------|
E|---------------------------------------------------------------------------|

I could not find time to complete the solo yet.  I hate to submit unfinished work, 
but I figure this will be useful until I update it, which should be in a couple of weeks.

The rest of the song is a repeat of what is printed.


| /  slide up
| \  slide down
| h  hammer-on
| p  pull-off
| ~  vibrato
| +  harmonic
| x  Mute note
===============================================================================
Comments