Offspring - Mota Chords & Tabs

 

Mota Chords & Tabs

Offspring Chords & Tabs

Version: 1 Type: Chords 0 ratings
1 star 2 stars 3 stars 4 stars 5 stars
comments

Mota Chords

#----------------------------------PLEASE NOTE---------------------------------#
#This file is the author's own work and represents their interpretation of the #
#song. You may only use this file for private study, scholarship, or research. #
#------------------------------------------------------------------------------#
#

Date: Fri, 26 Sep 1997 08:37:19 +1000
From: iCeSk8eR 
Subject: TAB: `Mota` by Offspring

                           M O T A   by   Offspring
                     -from the album Ixnay on the Hombre

Okay, I've tabbeed this because I got sick of looking around
the olga and finding stuff. It took me around 5 minutes to
tab this, so you should be able to work this song out in 5 min
using this tab. :)

And please leave me a e-mail at leech@webexpress.net.au and comment
about this tab.
                                                     -Joe ok

Intro

E -----
B -----
G --12-
D --12-
A --10-
E -----

I hate tabbing the rhythm, so you'll have to listen to the song
yourself and figure it out.

Riff 1 (Distortion)
[ Tab from: http://www.guitartabs.cc/tabs/o/offspring/mota_crd.html ]
E ----------------------------------------------------------------------
B ----------------------------------------------------------------------
G -12-12-12-12-12-12-12-12-12-12-14-14-15-8-8-8-8-8-8-8-8-10-10---------
D -12-12-12-12-12-12-12-12-12-12-14-14-15-8-8-8-8-8-8-8-8-10-10---------
A -10-10-10-10-10-10-10-10-10-10-12-12-13\6-6-6-6-6-6-6-6-8--8----------
E ----------------------------------------------------------------------

E ----------------------
B ----------------------
G -14-14-15-14-12-10----  Repeat this 2 times
D -14-14-15-14-12-10----
A -12-12-13-12-10-8-----
E ----------------------

Riff 2 (Medium Distortion)

E ----------
B ----------
G --12-8-10- Also you gotta work out rhythm for this riff as well.
D --12-8-10- I've just put the chords for you..
A --10-6-8-- Palm Mute sounds good on this riff
E ----------

CHORUS (Distortion)

E --------------------
B --------------------
G -10--5--------5-----
D -10--5--5--3--5--5--
A -8---3--5--3--3--5--
E --------3--1-----3--

Outro

E ----------------------------------------------------------------------
B ----------------------------------------------------------------------
G -10---------10--12-12-12-12-12-12-12-12-12-12-12-12-12-12-12-12-12----
D -10--10--8--10--12-12-12-12-12-12-12-12-12-12-12-12-12-12-12-12-12----
A -8---10--8--8---10-10-10-10-10-10-10-10-10-10-10-10-10-10-10-10-10----
E -----8---6------------------------------------------------------------


Well, I'm not sure if the words are 100% correct, so if not please
mail me at leech@webexpress.net.au and get me right
Comments