Offspring - Mota Chords & Tabs

 

Mota Chords & Tabs

Offspring Chords & Tabs

Version: 2 Type: Bass Tab 0 ratings
1 star 2 stars 3 stars 4 stars 5 stars
comments

Mota Bass Tab

HTis is a truly great song.
And these are its riffs:

Intro (play twice)
----------------------------------------|
----------------------------------------|
----------------------------------------|
-3-3--3-3-3--3-3--3-3-3-3--3-3--3-3-3-3-|

Pre-verse (play twice)
--------------------------------------------------------------|
--------------------------------------------------------------|
-------------------0-0-0-0------------------------0-0-0-0-----|
-3-3--3-3-3--3-3-3---------3-1--0-0--0-0-0--0-0-0---------3-1-|
[ Tab from: http://www.guitartabs.cc/tabs/o/offspring/mota_btab_ver_2.html ]
Verse (play verse twice then play pre-verse twice again)
-------------------------------------------------------|
-------------------------------------------------------|
-------------------------------------------------------|
-3-3--3-3-3--3-3--3-3-3-3-0-0-0--0-0-0--0-0--0-0-0-0-0-|

Chorus
-----------------------------------------------------------|
-----------------------------------------------------------|
-----------------3-3-3-3-3-3-3-3---------------------------|
-1-1-1-1-1-1-1-1-----------------3-3--3-3-3--3-3-3-3-3-3-3-|

Every time after the vrse play intro.


That's about it.

Enjoy!


By Lemonidas
Comments