Offspring - Mota Chords & Tabs

 

Mota Chords & Tabs

Offspring Chords & Tabs

Version: 1 Type: Bass Tab 0 ratings
1 star 2 stars 3 stars 4 stars 5 stars
comments

Mota Bass Tab

song: Mota
artist: The Offspring
album: Ixnay On The Hombre
transcribed by: Jon "Mr.Big" Makokis
comments & corrections: metallikop25@hotmail.com
 
 
intro/extro:x2(0:11, after drum intro) 
G|-----------------------------|
D|-----------------------------|
A|-----------------------------|
D|--55-555-5-5-5555-5-5-5555\--|
 
pre-verse:x2
G|------------------------------------------------|
D|------------------------------------------------|
A|-------------0--1-0-----------------0--1-0------|
D|--55-555-555--------5-3-11-111-1-33--------5-3--|
 
verse:x2
G|-----------------------------------------|
D|-----------------------------------------|
A|-----------------------------------------|
D|--55-5-55-5-55-5-55\11-1-11-1/33-3-333/--|
 
pre-verse riff:x2
 
chorus:x4                          "end"
G|-----------------------|------------------------|
D|-----------------------|------------------------|
A|------------33-3-33-3--|------------------------|
D|--33-3-33-3------------|--55-5-55-5-55-5-55-5\--|(don't play 4th time)
 
intro:x1
 
pre-verse:x2
 
verse:x2
 
pre-verse riff:x2
 
chorus:x4(4th time play this as "end"):
G|-------------------|
D|----------33-3-33--|
A|--11-1-11----------|
D|-------------------|
 
intro:x1
 
pre-verse:x2
 
chorus:x5(3rd time play):
G|-----------------------------------|
D|-----------------------------------|
A|----------333-333------------------|
D|--333-333---------555-555-555-555--|
 
(5th time don't play "end")
 
intro/extro:x1
 
 
 
There yah go.  I think it's pretty close.  This is how I play it at least.
 
HAVE FUN!!
[ Tab from: http://www.guitartabs.cc/tabs/o/offspring/mota_btab.html ]
Comments