Offspring - Million Miles Away Chords & Tabs

 

Million Miles Away Chords & Tabs

Offspring Chords & Tabs

Version: 6 Type: Tab 0 ratings
1 star 2 stars 3 stars 4 stars 5 stars
comments

Million Miles Away Tab

Offspring - Million Miles Away

This is a great song and im pretty sure these tabs are 100% correct

: - let ring 
/ \ - slide 
pm - palm mute 


intro - guitar 1 guitar 2 

|---------------------------| |-------------------| 
|---------------------------| |-------------------| 
|-----------------2---------| |----------/9-9-9-9-| 
|-----4-----------------2-4-| |-7----7-7-/9-9-9-9-| 
|-----------4---------------| |-7----7-7-/7-7-7-7-| 
|-2-2---2-2---2-2---2-2-----| |-5----5-5----------| 

guitar 2 / post chorus - for post chorus, strum all of it, without ringing 
and with palm mute 

|----------------------------------------------------| 
|----------------------------------------------------| 
|---------------------------------/7--7-7-7/9--9-9-9-| 
|-4---4-4-4/7:---7-7-7/9:---9-9-9-/7--7-7-7/9--9-9-9-| 
|-4---4-4-4/7:---7-7-7/9:---9-9-9-/5--5-5-5/7--7-7-7-| 
|-2---2-2-2/5:---5-5-5/7:---7-7-7--------------------| 

pre verse 

|-------------------------------------------------------------| 
|-------------------------------------------------------------| 
|-11-11-11-11-11-11-11-11-11-11-11-11-------------9-9-9-9-9-9-| 
|-11-11-11-11-11-11-11-11-11-11-11-11-7-7-7-7-7-7-9-9-9-9-9-9-| 
|--9--9--9--9--9--9--9--9--9--9--9--9-7-7-7-7-7-7-7-7-7-7-7-7-| 
|-------------------------------------5-5-5-5-5-5-------------| 

verse / chorus - chorus played without palm mute 

|--------------------------------------------------------| 
|--------------------------------------------------------| 
|-----------------------------------------/9-9-9-9-9-9-9-| 
|-4-4-4-4-4-4-4-4-4-4-4-4-4/7-7-7-7-7-7-7-/9-9-9-9-9-9-9-| 
|-4-4-4-4-4-4-4-4-4-4-4-4-4/7-7-7-7-7-7-7-/7-7-7-7-7-7-7-| 
|-2-2-2-2-2-2-2-2-2-2-2-2-2/5-5-5-5-5-5-5----------------| 

post verse 
[ Tab from: http://www.guitartabs.cc/tabs/o/offspring/million_miles_away_tab_ver_6.html ]
|--------------------------------------------------------------------------------- 
|--------------------------------------------------------------------------------- 
|-----------------------------9-9-9-9-9-9-9-9-9-9-9-9----------------------------- 
|-----------------------------9-9-9-9-9-9-9-9-9-9-9-9----------------------------- 
|-2--2-2-4--4-4-5--5-5-4--4-4-7-7-7-7-7-7-7-7-7-7-7-7-2--2-2-4--4-4-5--5-5-4--4-4- 
|--------------------------------------------------------------------------------- 
pm_____________________________| 
---------------------------------| 
---------------------------------| 
-9-9-9-9-9-9-9-9-9-9-9-9-9-9-9-9-| 
-9-9-9-9-9-9-9-9-9-9-9-9-9-9-9-9-| 
-7-7-7-7-7-7-7-7-7-7-7-7-7-7-7-7-| 
---------------------------------| 

solo 

|--------------------------------------------------------------- 
|--------------------------------------------------------------- 
|-16^-16-14-11--16^-16-14-16-16--16^-16-14-11--16^-16-14-16-16-- 
|--------------------------------------------------------------- 
|--------------------------------------------------------------- 
|--------------------------------------------------------------- 

----------------------------------------------------------------- 
----------------------------------------------------------------- 
-14-11-11-11-9-11-14-14-14-14-11-11-11-9-11-14-14-14-14-11-11-11- 
----------------------------------------------------------------- 
----------------------------------------------------------------- 
----------------------------------------------------------------- 

---------------------------------------| 
---------------------------------------| 
-9-11-11-14-14-14--10^--12^--10^--8^---| 
---------------------------------------| 
---------------------------------------| 
---------------------------------------|  
Comments