Offspring - Million Miles Away Chords & Tabs

 

Million Miles Away Chords & Tabs

Offspring Chords & Tabs

Version: 2 Type: Tab 1 rating
1 star 2 stars 3 stars 4 stars 5 stars
comments

Million Miles Away Tab

====================================
************************************
\/\/\/\/\/\/\/\/\/\/\/\/\/\/\/\/\/\/
The Offspring - A Million Miles Away
/\/\/\/\/\/\/\/\/\/\/\/\/\/\/\/\/\/\
************************************
====================================

By: Jack
Email: deakin_316@hotmail.com 

e|----------------------------------|------------------------------------------- 
B|----------------------------------|------------------------------------------- 
G|----------------------------------|------------9---9-------------------------- 
D|------------------2---------------|-7---7-7-7/-9---9-------------------------- 
A|------4-----2-----------2-----2h4-|-7---7-7-7/-7---7-------------------------- 
E|--2-2---2-2---2-2---2-2---2-2-----|-5---5-5-5/-------------------------------- 
 INTRO                                                                         

e|----------------------------------------------------|------------------------- 
B|----------------------------------------------------|------------------------- 
G|----------------------------------7-7-7-7/-9-9-9/-11|11-11-11-11-11----------- 
D|-4-----4-4/-7-----7-7/-9-----9-9/-7-7-7-7/-9-9-9/-11|11-11-11-11-11----------- 
A|-4-----4-4/-7-----7-7/-9-----9-9/-5-5-5-5/-7-7-7/--9|-9--9--9--9--9----------- 
E|-2-----2-2/-5-----5-5/-7-----7-7/-------------------|------------------------- 
                                                      chorus riff              

e|------------------------------------------------------------------------------ 
B|------------------------------------------------------------------------------ 
G|---------9-9-9-9/-11---------------------------------------------------------- 
D|-7-7-7-7-9-9-9-9/-11---------------------------------------------------------- 
A|-7-7-7-7-7-7-7-7/--9---------------------------------------------------------- 
E|-5-5-5-5---------------------------------------------------------------------- 
 verse                                                                         
[ Tab from: http://www.guitartabs.cc/tabs/o/offspring/million_miles_away_tab_ver_2.html ]
e|------------------------------------------------------------------------------ 
B|------------------------------------------------------------------------------ 
G|-----------------------------------9-x-x-x-x-x-x-x-9\------------------------- 
D|-4-x-x---x-x-x-4/-7-x-x-x-x-x-x-7/-9-x-x-x-x-x-x-x-9\-4----------------------- 
A|-4-x-x---x-x-x-4/-7-x-x-x-x-x-x-7/-7-x-x-x-x-x-x-x-7\-4----------------------- 
E|-2-x-x---x-x-x-2/-5-x-x-x-x-x-x-5/--------------------2----------------------- 
                                                                               

e|------------------------------------------------------------------------------ 
B|------------------------------------------------------------------------------ 
G|-4---6---7---6---9-9-9-9-9-9-9------------------------------------------------ 
D|-x---x---x---x---9-9-9-9-9-9-9------------------------------------------------ 
A|-2---4---5---4---7-7-7-7-7-7-7------------------------------------------------ 
E|------------------------------------------------------------------------------ 
 pre chorus                                                                    

e|---------------------------------------|-----------------------------------|-- 
B|---------------------------------------|-----------------------------------|-- 
G|-16b18r-14\-11---16b18r-14-14-14/16-16-|----------14\-11-11-9-9-9/11-14-14-|-- 
D|-16-----14\-11---16-----14-14-14/16----|-16-16-16--------------------------|-- 
A|---------------------------------------|-----------------------------------|-- 
E|---------------------------------------|-----------------------------------|-- 
 solo (this  is right)                                                         

e|------------------------------------------------------------------------------ 
B|------------------------------------------------------------------------------ 
G|-14/-16\-13\-9---------------------------------------------------------------- 
D|--x---x---x--x---------------------------------------------------------------- 
A-12/-14\-11\-7---------------------------------------------------------------- 
E|------------------------------------------------------------------------------ 
                                                                               

e|---------------------------------------|-------------------------------------- 
B|---------------------------------------|-------------------------------------- 
G|-11-11-11-11-11-11-------------9-9-9-9-|----------------------------7-7-7/-9-- 
D|-11-11-11-11-11-11-7-7-7-7-7-7-9-9-9-9-|-4-4-4-4/-7-7-7-7/-9-9-9-9/-7-7-7/-9-- 
A|--9--9--9--9--9--9-7-7-7-7-7-7-7-7-7-7-|-4-4-4-4/-7-7-7-7/-9-9-9-9/-5-5-5/-7-- 
E|-------------------5-5-5-5-5-5---------|-2-2-2-2/-5-5-5-5/-7-7-7-7/----------- 
 Guitar 2 during solo                                                          
Comments