Offspring - Million Miles Away Chords & Tabs

 

Million Miles Away Chords & Tabs

Offspring Chords & Tabs

Version: 11 Type: Tab 0 ratings
1 star 2 stars 3 stars 4 stars 5 stars
comments

Million Miles Away Tab

   
Song:Million miles away
Artist:The Offspring
Tabbed by:Dré

X=palm-mute

Intro
e|----------------------------------
B|----------------------------------
G|----------------------------------
D|---------------------------------9
A|9-9-9-9-9-7-9-7-12-9-9-9-9-7-9-7-7
E|-------------------------------5—

Chorus
e|------------------------------------
B|------------------------------------
G|6-6-6666-6-6-666--------------------
D|4-4-4444-4-4-444--------99-9999-99-9
A|-----------------77-777-77-7777-77-7
E|-----------------55-555-------------

Verse
e|------------------------------
B|------------------------------
G|------------------------------
D|---------------------9xxxxxxxx
A|4xxxxxxxxx7xxxxxxxxxx7xxxxxxxx
E|2xxxxxxxxx5xxxxxxxxxx---------
[ Tab from: http://www.guitartabs.cc/tabs/o/offspring/million_miles_away_tab_ver_11.html ]
Pre-chorus
e|------------------------------------------------------------
B|------------------------------------------------------------
G|------------------------------------------------------------
D|------------------999999-99999------------------999999-99999
A|------------------777777-77777------------------777777-77777
E|77-99-9-1010-999-0------------77-99-9-1010-999-0------------


Pre-verse
e|--------------------------------------------------
B|--------------------------------------------------
G|--------------------------------------------------
D|--------------------------4xxxxxxxxxx77-777-99-999
A|4xxxxxxxxxxxx7xxxxxxxxxxxx2xxxxxxxxxx55-555-77-777
E|2xxxxxxxxxxxx5xxxxxxxxxxxx------------------------

Solo
e|-------------------------------------------|
B|13-12-10-10-77-777-13-12-10-10-1212-121212-|
G|-------------------------------------------|
D|-------------------------------------------|
A|-------------------------------------------|
E|-------------------------------------------|2x

e|-----------------------|----------|
B|10-77-77-5-7-10-101010-|10-12-9-5-|
G|-----------------------|----------|
D|-----------------------|----------|
A|-----------------------|----------|
E|-----------------------|----------|
            4x

Order
Introx2
Pre-verse(without palm-mute)
Chorusx2
Versex4
Pre-chorus
Chorusx2
Pre-verse
Chorusx2
Versex4
Pre-chorus
Chorusx2
Pre-verse
Solo
Pre-chorus
Chorusx8(let ring last note)
Comments