Offspring - Million Miles Away (solo) Chords & Tabs

 

Million Miles Away (solo) Chords & Tabs

Offspring Chords & Tabs

Version: 1 Type: Tab 1 rating
1 star 2 stars 3 stars 4 stars 5 stars
comments

Million Miles Away (solo) Tab

TITLE : MILLION MILES AWAY SOLO
THE OFFSPRING
CONSPIRACY OF ONE
TABBED :  ALLAN MAXWELL
email : death2hippies@hotmail.com
[ Tab from: http://www.guitartabs.cc/tabs/o/offspring/million_miles_away_solo_tab.html ]
e-----------------------------------------------
b-----------------------------------------------
g---16^16--14--11-11-----16^16-16-14-14-16--16-- x2
d---16^16--14--11-11-----16^16-16-14-14-16--16--
a-----------------------------------------------
E-----------------------------------------------

e---------------------------------
b---------------------------------
g---14--14-14s11-11-11-9-9-11-14-- x3
d---------------------------------
a---------------------------------
E---------------------------------

e------------------------------
b------------------------------
g-14--16--13--9--4--6--7--6----
d------------------------------
a-12--14--11--7--2--4--5--4----
E------------------------------
Comments