Offspring - Million Miles Away Chords & Tabs

 

Million Miles Away Chords & Tabs

Offspring Chords & Tabs

Version: 4 Type: Bass Tab 0 ratings
1 star 2 stars 3 stars 4 stars 5 stars
comments

Million Miles Away Bass Tab

Song:Million miles away
Artist:The Offspring
Tabbed by:Dré

:=let ring

Intro
G|--------------
D|--------------
A|--------------
E|2:---------2:-

Pre-verse
G|--------------------
D|--------------------
A|----0-0-2-2-5-5-7-7-
E|2-2-----------------

Chorus
G|---------------------------------
D|---------------------------------
A|99-999-9999-999--------777-777-7-
E|---------------5-5-555-----------
[ Tab from: http://www.guitartabs.cc/tabs/o/offspring/million_miles_away_btab_ver_4.html ]
Verse
G|-----------------------------
D|-----------------------------
A|----------------------777777-
E|2222222222222-5555555--------

Pre-chorus
G|----------------------------------------------
D|----------------------------------------------
A|----------------------------------------------
E|7-5-10-9-0:------7-5-10-9-0:--00-000-0000-000-

Order
Intro
Pre-verse
Chorusx2
Versex4
Pre-chorus
Chorusx2
Pre-verse
Chorusx2
Versex4
Pre-chorus
Chorusx2
Pre-verse
Chorusx2
Pre-verse
Pre-chorus
Chorusx8
Comments