Offspring - Million Miles Away Chords & Tabs

 

Million Miles Away Chords & Tabs

Offspring Chords & Tabs

Version: 3 Type: Bass Tab 0 ratings
1 star 2 stars 3 stars 4 stars 5 stars
comments

Million Miles Away Bass Tab

The offspring
Milion miles away

Tablatura de: CAV5mentarios

............................................................................................
Bien esta cancion es muy sencilla Solamente es cuestion de oido

OJO CON ESTO:
 ^ esto quiere decir que sigue en la misma nota

(Suerte y pulso)

INTRODUCCION:

G---------------------------------------------------
D---------------------------------------------------
A-9-9-9-9-9-9-9-9------------------7-7-7-7-7-7-7-7--
E-----------------5-5-5-5-5-5-5-5-------------------
[ Tab from: http://www.guitartabs.cc/tabs/o/offspring/million_miles_away_btab_ver_3.html ]
G---------------------------------------------------
D---------------------------------------------------
A------------5-^-7^---------------------------------
E-2^-5-^-7-^----------------------------------------

CORO (Chorus):x2

G---------------------------------------------------
D---------------------------------------------------
A-9-9-9-9-9-9-9-9---------------7-7-7-7-7-7-7-7--
E-----------------5-5-5-5-5-5-5-------------------

VERSO (Verse):x4

G---------------------------------
D---------------------------------
A-----------------------7-7-7-7-
E-2-2-2-2-2-2-2-5-5-5-5---------

PRECORO (Pre-chorus):

G-----------------------------------------
D-----------------------------------------
A-2-4-5-4-7-^-2-4-5-4-2-^-----------------
E-----------------------------------------

esto es asi:

Intro
Chorus
Verse
Pre chorus
Chorus
Intro
Chorus
Intro
Pre chorus
Chorusx4

CUALQUIER DUDA ESCRIBIR A cav_yo@hotmail.com
Comments