Offspring - Million Miles Away Chords & Tabs

 

Million Miles Away Chords & Tabs

Offspring Chords & Tabs

Version: 2 Type: Bass Tab 0 ratings
1 star 2 stars 3 stars 4 stars 5 stars
comments

Million Miles Away Bass Tab

   
Artist:Offspring
Song title: Milion miles away
Album: Conspiracy of one

Tabbed by James Trotman.

www.crowstabs.cjb.net


This is a really great song off the new album and is really easy to play.
ENJOY!!!!!!!!!!!

INTRO:

G----------------------------------------------------------------
D----------------------------------------------------------------
A-------------------------------------------------5-5-5-5-7-7-7-7
E-2-2-2-2-2-2-2-2-5-5-5-5-5-5-5-5-7-7-7-7-7-7-7-7----------------

Chorus:x2
[ Tab from: http://www.guitartabs.cc/tabs/o/offspring/million_miles_away_btab_ver_2.html ]
G---------------------------------------------------
D---------------------------------------------------
A-9-9-9-9-9-9-9-9------------------7-7-7-7-7-7-7-7--
E-----------------5-5-5-5-5-5-5-5-------------------

Verse:x4

G---------------------------------
D---------------------------------
A-------------------------7-7-7-7-
E-2-2-2-2-2-2-2-2-5-5-5-5---------

Pre-chorus:

G---------------------------------------------------------------
D---------------------------------------------------------------
A-2-4-5-4-7-7-7-7-7-7-7-7-2-4-5-4-2-2-2-2-2-2-2-2-2-2-2-2-2-2-2-
E---------------------------------------------------------------

then its:

Chorus
Intro
Chorus
Verse
Pre chorus
Chorus
Intro
Chorus
Intro
Pre chorus
Chorusx4

Thats the whole song!! Any comments or abuse send to me @:
the_bassgenius@hotmail.com

Visit www.crowstabs.cjb.net for all your bands needs!!!!
Comments