Offspring - Me And My Old Lady Chords & Tabs

 

Me And My Old Lady Chords & Tabs

Offspring Chords & Tabs

Version: 1 Type: Chords 0 ratings
1 star 2 stars 3 stars 4 stars 5 stars
comments

Me And My Old Lady Chords

   
Song: Me and My Old Lady
Band: The Offspring
Album: Ixnay on the Hombre

Drop D tuning
e------------------------
B------------------------
G-2-2-0--0-2-2/5-2-2-0-2-
D-2-2-0--0-2-2/5-2-2-0-2-
A-2-2-0--0-2-2/5-2-2-0-2-
E-2-2-0--0-2-2/5-2-2-0-2-
[ Tab from: http://www.guitartabs.cc/tabs/o/offspring/me_and_my_old_lady_crd.html ]
You can also play this riff in power chords if you don't want to bother
with the drop d tuning. I'll put down the chords for that....

  F# F#5  F#/B  F#  F#5 F#
e------------------------
B------------------------
G------------------------
D-4-4-4--4-4-4/9-4-4-4-4-
A-4-4-4--4-4-4/9-4-4-4-4-
E-2-2-0--0-2-2/7-2-2-0-2-

The timing is probably off but you get the picture right?
Comments