Offspring - Me And My Old Lady Chords & Tabs

 

Me And My Old Lady Chords & Tabs

Offspring Chords & Tabs

Version: 1 Type: Bass Tab 0 ratings
1 star 2 stars 3 stars 4 stars 5 stars
comments

Me And My Old Lady Bass Tab

Offspring - Me and My Old Lady
Original: Anonymous
Redone by: David Parent, member of the BTA Tabbing Army

Intro:
G|----------------------------------------------------------------|
D|----------------------------------------------------------------|
A|---------------------------10^(11)^10----------------------11\0-|
E|-0/12-12-12-10-10-12-12-12------------12-12-10-10-12-12-12------|

G|-----------------------------------------------------------|
D|-----------------------------------------------------------|
A|----------------------10^(11)^10----------------------11\0-|
E|-12-12-10-10-12-12-12------------12-12-10-10-12-12-12------|

Verse 1:
G|-----------------------------------------------------------|
D|-----------------------------------------------------------|
A|----------------------10^(11)^10---------------------------|
E|-12-12-10-10-12-12-12------------12-12-10-10-12------------|

G|-----------------------------------------------------------|
D|-----------------------------------------------------------|
A|----------------------10^(11)^10----------------------11\0-|
E|-12-12-10-10-12-12-12------------12-12-10-10-12------------|

G|---------------------------------|
D|---------------------------------|  2x
A|---------------2^(3)^2-----------|
E|-3-3-1-1-3-3-3---------3-3-1-1-3-|

G|---------------------------------|
D|---------------------------------|
A|---------------4^(5)^4-----------|
E|-5-5-3-3-5-5-5---------5-5-3-3-5-|

G|---------------------------------|
D|---------------------------------|  3x
A|---------------2^(3)^2-----------|
E|-3-3-1-1-3-3-3---------3-3-1-1-3-|

G|---------------------------------|
D|---------------------------------|
A|---------------4^(5)^4-----------|
E|-5-5-3-3-5-5-5---------5-5-3-3-5-|

G|---------------------------------|
D|---------------------------------|  3x
A|---------------2^(3)^2-----------|
E|-3-3-1-1-3-3-3---------3-3-1-1-3-|

G|---------------------------------|
D|---------------------------------|
A|---------------4^(5)^4-----------|
E|-5-5-3-3-5-5-5---------5-5-3-3-5-|

G|---------------------------------|
D|---------------------------------|
A|---------------2^(3)^2-----------|
E|-3-3-1-1-3-3-3---------3-3-1-1-3-|

Chorus:
G|--------------------------------------------------------|
D|--------------------------------------------------------|  3x
A|--------------------------------------------------------|
E|-10-1212-1010-12---8-1010-88-10---3-55-33-5---1-33-11-3-|
[ Tab from: http://www.guitartabs.cc/tabs/o/offspring/me_and_my_old_lady_btab.html ]
G|---------------------------------------|
D|---------------------------------------|
A|---------------------------------------|
E|-12-12-12121212-12------10------5------|

Verse 2:
G|-----------------------------------------------------------|
D|-----------------------------------------------------------|
A|----------------------10^(11)^10---------------------------|
E|-12-12-10-10-12-12-12------------12-12-10-10-12------------|

G|-----------------------------------------------------------|
D|-----------------------------------------------------------|
A|----------------------10^(11)^10----------------------11\0-|
E|-12-12-10-10-12-12-12------------12-12-10-10-12------------|

G|---------------------------------|
D|---------------------------------|  6x
A|---------------2^(3)^2-----------|
E|-3-3-1-1-3-3-3---------3-3-1-1-3-|

G|---------------------------------|
D|---------------------------------|
A|---------------4^(5)^4-----------|
E|-5-5-3-3-5-5-5---------5-5-3-3-5-|

G|---------------------------------|
D|---------------------------------|  3x
A|---------------2^(3)^2-----------|
E|-3-3-1-1-3-3-3---------3-3-1-1-3-|

G|---------------------------------|
D|---------------------------------|
A|---------------4^(5)^4-----------|
E|-5-5-3-3-5-5-5---------5-5-3-3-5-|

G|---------------------------------|
D|---------------------------------|
A|---------------2^(3)^2-----------|
E|-3-3-1-1-3-3-3---------3-3-1-1-3-|


Repeat Chorus


Verse 3:
G|-----------------------------------------------------------|
D|-----------------------------------------------------------|  2x
A|----------------------10^(11)^10---------------------------|
E|-12-12-10-10-12-12-12------------12-12-10-10-12------------|

G|---------------------------------|
D|---------------------------------|  6x
A|---------------2^(3)^2-----------|
E|-3-3-1-1-3-3-3---------3-3-1-1-3-|

G|---------------------------------|
D|---------------------------------|
A|---------------4^(5)^4-----------|
E|-5-5-3-3-5-5-5---------5-5-3-3-5-|

G|---------------------------------|
D|---------------------------------|  3x
A|---------------2^(3)^2-----------|
E|-3-3-1-1-3-3-3---------3-3-1-1-3-|

G|---------------------------------|
D|---------------------------------|
A|---------------4^(5)^4-----------|
E|-5-5-3-3-5-5-5---------5-5-3-3-5-|

Outro:
G|--------------------------------|
D|--------------------------------|
A|---------------2^(3)^2----------|
E|-3-3-1-1-3-3-3---------3-3-1-1--|

G|---------------------------------------------|
D|---------------------------------------------|
A|-0---7--9--10--12--------4--5--7--9----------|
E|---------------------2-----------------0-----|

Comments