Offspring - Living In Chaos Chords & Tabs

 

Living In Chaos Chords & Tabs

Offspring Chords & Tabs

Version: 6 Type: Tab 0 ratings
1 star 2 stars 3 stars 4 stars 5 stars
comments

Living In Chaos Tab

Band: THe Offspring
Album: Conspiracy of One
Guitarists: Dexter Holland, Noodles
Tabbed By: Duncan Usher - IKSOSE3@hotmail.com

Intro

Guitar 1
e|---------------------------------------------------------------------------|
B|---------------------------------------------------------------------------|
G|-----1-1---------------------1-1-------------------------------------------|
D|-----------------3-3--------------3-1-3-3-3-3b-----------------------------|
A|---------------------------------------------------------------------------|
E|-0h1-----0-0-0h1-----0-0-0h1-----------------------------------------------|

Guitar 2/Chorus
e|---------------------------------------------------------------------------|
B|---------------------------------------------------------------------------|
G|-------10-----------10-----------10---8\10-10-10-10b-10--------------------|
D|-------10-----------10-----------10---6\10-10-10-10b-10--------------------|
A|--------8------------8------------8---6\-8--8--8--8b--8--------------------|
E|-0h1-------0-0-0h1------0-0-0h1--------------------------------------------|

Pre-Verse
e|---------------------------------------------------------------------------|
B|---------------------------------------------------------------------------|
G|-66-6-6--66-6-6-88-8-8--88-8-8-8\10----------------------------------------|
D|-66-6-6--66-6-6-88-8-8--88-8-8-8\10----------------------------------------|
A|-44-4-4--44-4-4-66-6-6--66-6-6-6\-8----------------------------------------|
E|---------------------------------------------------------------------------|

Verse

Guitar 1
e|-8-9-8---------|--|----------------------------------------------------------|
B|-------9-8---6-|--|----------------------------------------------------------|
G|-----------9---|--|----------------------------------------------------------|
D|---------------|--|----------------------------------------------------------|
A|---------------|--|----------------------------------------------------------|
E|---------------|--|----------------------------------------------------------|

Guitar 2
e|---------------------------------------------------------------------------|
B|---------------------------------------------------------------------------|
G|-5--5-/-10------13-13-13---12-12-12---10-10-10~----------------------------|
D|-x--x-/--x-------x--x--x----x--x--x----x--x--x~----------------------------|
A|-3--3-/--8------11-11-11---10-10-10----8--8--8~----------------------------|
E|---------------------------------------------------------------------------|
[ Tab from: http://www.guitartabs.cc/tabs/o/offspring/living_in_chaos_tab_ver_6.html ]
Bridge
e|---------------------------------------------------------------------------|
B|---------------------------------------------------------------------------|
G|-3-33333-6~----------------------------------------------------------------|
D|-3-33333-6~----6--6666--4~--44-4-6-----------------------------------------|
A|-1-11111-4~----6--6666--4~--44-4-6-----------------------------------------|
E|---------------4--4444--2---22-2-4-----------------------------------------|

Post-Bridge
e|---------------------------------------------------------------------------|
B|---------------------------------------------------------------------------|
G|----10--------10---------10------------------------------------------------|
D|----10--------10---------10---3--6-----------------------------------------|
A|-----8---------8----------8---3--6-----------------------------------------|
E|-0h1---0-0-0h1---0-0-0h1------1--4-----------------------------------------|

Add on
e|---------------------------------------------------------------------------|
B|---------------------------------------------------------------------------|
G|-----1-1-------------------------------------------------------------------|
D|---------------------------------------------------------------------------|
A|---------------------------------------------------------------------------|
E|-0h1-----------------------------------------------------------------------|

e|---------------------------------------------------------------------------|
B|---------------------------------------------------------------------------|
G|--5-5-3h5-5-5-5b-5-5(I'm sorry this bit aint perfect, but it's the best--| 
D|--5-5-3h3-5-3-3b-3-3--I-could do)-----------------------------------------|
A|---------------------------------------------------------------------------|
E|---------------------------------------------------------------------------|

End on
e|---------------------------------------------------------------------------|
B|---------------------------------------------------------------------------|
G|----10--------10-----8/--1010101010----------------------------------------|
D|----10--------10-----8/--1010101010----------------------------------------|
A|-----8---------8-----6/---8-8-8-8-8----------------------------------------|
E|-0h1---0-0-0h1---0-0-------------------------------------------------------|

Intro Guitar 1 x 2
Intro Guitar 1 & 2 x 2
Pre-Verse
Verse x 3
Chorus x 3
Intro Guitar 1 & Chorus x 2
Verse x 2
Chorus x 2
Intro Guitar 1 & Chorus x 2
Bridge x 2
Post-Bridge x 3
Intro Guitar 1
Verse x 2
Add on
Bridge x 2
Post-Bridge x 3
End on
Comments