Offspring - Living In Chaos Chords & Tabs

 

Living In Chaos Chords & Tabs

Offspring Chords & Tabs

Version: 4 Type: Tab 0 ratings
1 star 2 stars 3 stars 4 stars 5 stars
comments

Living In Chaos Tab

Living In Chaos - Offspring 

eh its an OK songs, wut the guitars pretty cool =P

: - let ring 
x - scratch 
pm - palm mute 
/ \ - slide 
h - hammer on 
p - pull off 


intro / riff 
pm_____| |_______| |_______| 
|------------------------------------------------------| 
|------------------------------------------------------| 
|-------1-1---------------------1-1--------------------| 
|-------------------3-3--------------3-1-1-3-3-3-3h4p3-| 
|------------------------------------------------------| 
|-0-0h1-----0-0-0h1-----0-0-0h1------------------------| 

guitar 2 / chorus 

|------------------------------------------------------------| 
|------------------------------------------------------------| 
|-------10-x-x-------10-x-x-------10-x-x-8/10-10-10-10-11-10-| 
|-3-x-x-10-x-x-3-x-x-10-x-x-3-x-x-10-x-x-8/10-10-10-10-11-10-| 
|-3-x-x--8-x-x-3-x-x--8-x-x-3-x-x--8-x-x-6/-8--8--8--8--9--8-| 
|-1-x-x--------1-x-x--------1-x-x----------------------------| 

pre verse 
[ Tab from: http://www.guitartabs.cc/tabs/o/offspring/living_in_chaos_tab_ver_4.html ]
|-----------------------------------------------| 
|-----------------------------------------------| 
|-6-6-6-6-x-6-6-6-6-x-8-8-8-8-x-8-8-8-8-x-10:---| 
|-6-6-6-6-x-6-6-6-6-x-8-8-8-8-x-8-8-8-8-x-10:---| 
|-4-4-4-4-x-4-4-4-4-x-6-6-6-6-x-6-6-6-6-x--8:---| 
|-----------------------------------------------| 

verse - guitar 1 

|-8-9-8-------------| 
|--------9-8---6:---| 
|------------9------| 
|-------------------| 
|-------------------| 
|-------------------| 

verse - guitar 2 

|---------------------------------------------| 
|---------------------------------------------| 
|-5-5--10-10:---13-13-13-12-12-12-10-10-10:---| 
|-x-x---x--x:----x--x--x--x--x--x--x--x--x:---| 
|-3-3---8--8:---11-11-11-10-10-10--8--8--8:---| 
|---------------------------------------------| 

bridge 

|---------------------------------| 
|---------------------------------| 
|-3:--3-3-6:--6-6-----------------| 
|-3:--3-3-6:--6-6-6:--6-6-4:--4-4-| 
|-1:--1-1-4:--4-4-6:--6-6-4:--4-4-| 
|-----------------4:--4-4-2:--2-2-|  
Comments