Offspring - Living In Chaos Chords & Tabs

 

Living In Chaos Chords & Tabs

Offspring Chords & Tabs

Version: 3 Type: Tab 0 ratings
1 star 2 stars 3 stars 4 stars 5 stars
comments

Living In Chaos Tab

Song: Living in Chaos
Band: The Offspring
Album: Conspiracy of One
Track: 7
Tabbed by: Everett Hoesing
Email: psycho_boy33@yahoo.com


e|-----------------------------------------------------|
B|-----------------------------------------------------|
G|-----------------------------------------------------|
D|-----------------------------------------------------| X2
A|-----10-10------7-7--------7-7-7-7-8-7---------------|
E|-0-0-------0-0---------------------------------------|
[ Tab from: http://www.guitartabs.cc/tabs/o/offspring/living_in_chaos_tab_ver_3.html ]
e|-----------------------------------------------------|
B|-----------------------------------------------------|
G|-----------------------------------------------------|
D|-7-7-7-7---x---9-9-9-9-9-9-9-------------------------|
A|-7-7-7-7---x---9-9-9-9-9-9-9-------------------------|
E|-5-5-5-5---x---9-9-9-9-9-9-9-------------------------|

e|-7-8-7-----------------------------------------------|
B|--------8-7--------6-----0-0-0-0---------------------|
G|---------------8-------------------------------------|
D|-----------------------------------------------------|
A|-----------------------------------------------------|
E|-----------------------------------------------------|

e|-7-8-7—-------------------|
B|--------8-7—------6-------|
G|--------------8-----------|
D|--------------------------|
A|--------------------------|
E|--------------------------|

This is all I have so far. So If u don’t like it tough shit 
and wait a couple of weeks.
Comments