Offspring - Leave It Behind Chords & Tabs

 

Leave It Behind Chords & Tabs

Offspring Chords & Tabs

Version: 1 Type: Tab 0 ratings
1 star 2 stars 3 stars 4 stars 5 stars
comments

Leave It Behind Tab

#----------------------------------PLEASE NOTE---------------------------------#
#This file is the author's own work and represents their interpretation of the #
#song. You may only use this file for private study, scholarship, or research. #
#------------------------------------------------------------------------------#
#

From: iCeSk8eR 
To: GUITAR@OLGA.NET
Subject: Tab: Leave it behind by Offspring

===================================================
Leave it behind - off the album Ixnay on the Hombre
===================================================
  O     F     F     S     P     R     I    N    G

Anyway, It's another easy song from the album Ixnay
and just based on power chords, Intro is easy.. and all you gotta
do is, just listen to the song and just play it (work out the rhythm)
Enjoy! (and please comment on this tab.. thanks)

Intro
[ Tab from: http://www.guitartabs.cc/tabs/o/offspring/leave_it_behind_tab.html ]
E -----------------------------------------------------------------------
B -----------------------------------------------------------------------
G -----------------------------------------------------------------------
D -----------------------------------------------------------------------
A ----7--9--10--9-----7--9--10--9---7--9--10--9-----7--9--10--9----------
E -0---------------0--------------0--------------0-----------------------

Riff 1

E ------------|
B ------------|
G -5-----7--9-|
D -5--7--7--9-|
A -3--7--5--7-|
E ----5-------|

Riff 2

E -----------------------------|
B -----------------------------|
G -----7--9--5-----7--9--5--7--|
D --5--7--9--5--5--7--9--5--7--|
A --5--5--7--3--5--5--7--3--5--|
E --3-----------3--------------|

Riff 3

E -----------------------------------------------------------------------
B -----------------------------------------------------------------------
G -----------------------------------------------------------------------
D -----------------------------------------------------------------------
A ----7--9--10--9-----7--9--10--9---7--9--10--9-----7--9--10--9----------
E -0---------------0--------------0--------------0-----------------------
Comments