Offspring - Lapd Chords & Tabs

 

Lapd Chords & Tabs

Offspring Chords & Tabs

Version: 5 Type: Tab 0 ratings
1 star 2 stars 3 stars 4 stars 5 stars
comments

Lapd Tab

Heres The L.A.P.D solo... 100%

E--------10-10-9-9-------9-9--------------------|
B--12-12-----------10-10-----10-10-11/12-11/12--|
G-----------------------------------------------| X2
D-----------------------------------------------|
A-----------------------------------------------|
E-----------------------------------------------|

E--------14-14-12-12-------12-12-------------------|
B--12-12-------------13-13-------13-13-14/15-14/15-|
G--------------------------------------------------|
D--------------------------------------------------|
A--------------------------------------------------|
E--------------------------------------------------|
[ Tab from: http://www.guitartabs.cc/tabs/o/offspring/lapd_tab_ver_5.html ]
E--------10-10-9-9-------9-9-----------------------|
B--12-12-----------10-10-----10-10-11b*-11b*-11**--|
G--------------------------------------------------|  
D--------------------------------------------------|
A--------------------------------------------------|
E--------------------------------------------------|

E------------------------------------------------|
B--11x7-12~~~~~-12/18----------------------------|
G------------------------------------------------|  
D------------------------------------------------|
A------------------------------------------------|
E------------------------------------------------|

Ure welcome - * means bend 1 step and ** means strike the note
after youve bent it 1 step. ~ is vibrato.
Comments