Offspring - Lapd Chords & Tabs

 

Lapd Chords & Tabs

Offspring Chords & Tabs

Version: 2 Type: Tab 0 ratings
1 star 2 stars 3 stars 4 stars 5 stars
comments

Lapd Tab

ANOTHER GREAT SONG FROM MY FAVOURITE BAND

INTRO

E |------------------------------------------------------
B |------------------------------------------------------
G |------------------------------------------------------
D |------------------------------------------------------
A |-2--2--2--2--2-----2--2--2--2--2--2--2--2--2--2-------
E |------------------------------------------------------

\_____________PALM MUTE____________/

MAIN RIFF

E |---------------------------------------
B |---------------------------------------
G |---------------------------------------
D |-9--9--9-----10-10----10-9--7----------
A |-9--9--9-----10-10----10-9--7----------
E |-7--7--7-----8--8-----8--7--5----------

VERSE

E |--------------------------------------
B |--------------------------------------
G |--------------------------------------
D |-9--9--9--9--9-----10-10----10-9--7---
A |-9--9--9--9--9-----10-10----10-9--7---
E |-7--7--7--7--7-----8--8-----8--7--5---

\_______PALM MUTED_______/

CHORUS   (BEAT ALL THEā€¦)

E |-----------------------------------
B |-----------------------------------
G |-11-11-10-10-7---------------------
D |-11-11-10-10-7-----9--9--10-10-----
A |-9--9--8--8--5-----9--9--10-10-----
E |-------------------7--6--8--8------

END CHORUS (WERE LAPD)
[ Tab from: http://www.guitartabs.cc/tabs/o/offspring/lapd_tab_ver_2.html ]
E |----------------------
B |----------------------
G |----7-----------------
D |-7--7--9--9--9--9-----
A |-7--5--9--9--9--9-----
E |-5-----7--7--7--7-----


SOLO

E |----------------------------------------------
B |-------16-16-------------16-16-15h16-15h16----
G |-15-15-------15-15-14-14----------------------
D |----------------------------------------------X2
A |----------------------------------------------
E |----------------------------------------------



E |-------15-15-14-14-------------16-16-15h16-15h16------
B |-16-16-------------16-16-15-15------------------------
G |------------------------------------------------------X1
D |------------------------------------------------------
A |------------------------------------------------------
E |------------------------------------------------------



E |--------------------------------------------------
B |-------16-16-------------16-16-15h16-15h16--------
G |-15-15-------15-15-14-14--------------------------
D |--------------------------------------------------X1
A |--------------------------------------------------
E |--------------------------------------------------



E |------------------------
B |/15/15/15/15/15/15------
G |------------------------
D |------------------------X1
A |------------------------
E |------------------------

ORDER

INTRO
MAIN RIFF 
VERSE
CHORUS (+END CHORUS)
MAIN RIFF
VERSE
CHORUS (+END CHORUS)
MAIN RIFF
SOLO
CHORUS (+END CHORUS)
MAIN RIFF
VERSE
CHORUS (+END CHORUSX3)
Comments