Offspring - Lapd Chords & Tabs

 

Lapd Chords & Tabs

Offspring Chords & Tabs

Version: 1 Type: Bass Tab 0 ratings
1 star 2 stars 3 stars 4 stars 5 stars
comments

Lapd Bass Tab

Bass tab for L.A.P.D. by The Offspring


Intro
			     x12
G|----------------------------|
D|----------------------------|	Guitar enters after 4th time
A|-2-2-2--2--2-2-2-2-2--2--2-2|	Drums enter after 8th time
E|----------------------------|


Verse/solo
[ Tab from: http://www.guitartabs.cc/tabs/o/offspring/lapd_btab.html ]
G|----------------------|
D|----------------------|
A|-2--2-2-2--2-3r3r0-0--|
E|----------------------|


Chorus
		     x3
G|---------------------|---------------|
D|-9-9-8-8-7-----------|---------------|
A|------------7-7-5-5--|----5----------|
E|---------------------|-5-----7-7-7-7-|
Comments