Offspring - Killboy Powerhead Chords & Tabs

 

Killboy Powerhead Chords & Tabs

Offspring Chords & Tabs

Version: 1 Type: Tab 0 ratings
1 star 2 stars 3 stars 4 stars 5 stars
comments

Killboy Powerhead Tab

# intro #    X 6
E----------------------------------------------|
B----------------------------------------------|
G---9--9-9--7-7--9-9--12-12-12--11--11-11-11---|
D---9--9-9--7-7--9-9--12-12-12--11--11-11-11---|
A---7--7-7--5-5--7-7--10-10-10---9---9--9--9---|
E----------------------------------------------|
:
# chorus #    *=play 8X
E-------------------------------|
B----*---*---*------------------|
G---9---5---7--(9-9--5-5--7-7)--|
D---9---5---7--(9-9--5-5--7-7)--|
A---7---3---5--(7-7--3-3--5-5)--|
E-------------------------------|
:
# verse2 #    X 3    (brackets only first time) (last chord not third time)
E-------------------------------------------------------------|
B-------------------------------------------------------------|
G---------------------------------------------------------9---|
D--(7-9-9--7-9-9--7-9-9-12-9)--7-9-9--7-9-9--7-9-9-12-9---9---|
A--(7-9-9--7-9-9--7-9-9-12-9)--7-9-9--7-9-9--7-9-9-12-9---7---|
E--(5-7-7--5-7-7--5-7-7-10-7)--5-7-7--5-7-7--5-7-7-10-7-------|
:
Play chorus
:
# bridge #    X 4                          # bridge2 #       *=play 8X
E-------------------------------------|    E--------------------------------|
B-------------------------------------|    B--------------------------------|
G-------------------------------------|    G----*---*---*-------------------|
D---8-10-10--8-10-10--8-10-10-13-10---|    D--10---6---8--10-10--6-6--8-8---|
A---8-10-10--8-10-10--8-10-10-13-10---|    A--10---6---8--10-10--6-6--8-8---|
E---6--8--8--6--8--8--6--8--8-11--8---|    E---8---4---6---8--8--4-4--6-6---|
:
Play intro X4 and chorus (brackets X3).
:
# outro #      (brackets X4)                  
E--------------------------------------------------------------|
B--------------------------------------------------------------|
G------------------------------9--9-9--7-7--9-9--12-12-12-11---|
D--(7-9-9--7-9-9--7-9-9-12-9)--9--9-9--7-7--9-9--12-12-12-11---|
A--(7-9-9--7-9-9--7-9-9-12-9)--7--7-7--5-5--7-7--10-10-10--9---|
E--(5-7-7--5-7-7--5-7-7-10-7)----------------------------------|
[ Tab from: http://www.guitartabs.cc/tabs/o/offspring/killboy_powerhead_tab.html ]
Comments