Offspring - Kill The President Chords & Tabs

 

Kill The President Chords & Tabs

Offspring Chords & Tabs

Version: 2 Type: Tab 0 ratings
1 star 2 stars 3 stars 4 stars 5 stars
comments

Kill The President Tab

   
Intro 1
e----------------------------------------------------------|
B----------------------------------------------------------|
G--14--15--14--12--9--11--12-12--11--9---------------------|
D---x---x---x---x--x---x---x--x---x--x---------------------|
A--12--13--12--10--7---9--10-10---9--7---------------------|
E----------------------------------------------------------|

Intro 2
e----------------------------------------------------------|
B----------------------------------------------------------|
G--14--15--14--12--9--11--12-12--11--9---------------------|
D--14--15--14--12--9--11--12-12--11--9---------------------|
A--12--13--12--10--7---9--10-10---9--7---------------------|
E----------------------------------------------------------|

Chorus
e----------------------------------------------------------|
B----------------------------------------------------------|
G--7/9--9-9-9-9-9-9--10-10-10-10--7-7-7-7---5-5-5-5--------|
D--7/9--9-9-9-9-9-9--10-10-10-10--7-7-7-7---5-5-5-5--------|
A--5/7--7-7-7-7-7-7---8--8--8--8--5-5-5-5---3-3-3-3--------|
E----------------------------------------------------------|
("In a world without leaders...")

(continued)
e----------------------------------------------------------|
B----------------------------------------------------------|
G--2-2-2-2--1-1-1-1-1-1-1-1--------------------------------|
D--2-2-2-2--2-2-2-2-2-2-2-2--------------------------------|
A--0-0-0-0--2-2-2-2-2-2-2-2--------------------------------|
E-----------0-0-0-0-0-0-0-0--------------------------------|

Verse
e----------------------------------------------------------|
B----------------------------------------------------------|
G--9\-----15--12--14--10--12--10---------------------------|
D--9\-----15--12--14--10--12--10---------------------------|
A--7\-----13--10--12---8--10---8---------------------------|
E----------------------------------------------------------|

Solo A (Guitar 1)
e----------------------------------------------------------|
B----------------------------------------------------------|
G-------------------3-3-3-3--------------------------------|
D--2-2-2-2-2-2-2-2--3-3-3-3--5-5-5-5-----------------------|
A--2-2-2-2-2-2-2-2--1-1-1-1--5-5-5-5-----------------------|
E--0-0-0-0-0-0-0-0-----------3-3-3-3-----------------------|

Solo B (Guitar 2)
e--15p14p12-----15p14p12-----15p14p12----------------------|
B-----------12-----------12-----------12--11^---10p8h10p8^-|
G----------------------------------------------------------|
D----------------------------------------------------------|
A----------------------------------------------------------|
E----------------------------------------------------------|

(continued)
e------------------------------------------12h14h15--19^---|
B------------------------------10-------12-----------------|
G----------9h12-12---9--12---9----12^----------------------|
D--8--7h8---------------12---------------------------------|
A----------------------------------------------------------|
E----------------------------------------------------------|
[ Tab from: http://www.guitartabs.cc/tabs/o/offspring/kill_the_president_tab_ver_2.html ]
(continued)
e--17--15--17--19--17p15--13^--13p12p10--------------------|
B---------------------------------------12-10--------10^---|
G---------------------------------------------12-9----9^---|
D----------------------------------------------------------|
A----------------------------------------------------------|
E----------------------------------------------------------|

(continued)
e----------------------------------------------------------|
B-------10-8----10--11^--10p8------------------------------|
G--7---------9----------------h9---------------------------|
D----9-----------------------------------------------------|
A----------------------------------------------------------|
E----------------------------------------------------------|

Riff A (Guitar 1)
e----------------------------------------------------------|
B----------------------------------------------------------|
G--9---9---9---9---9-9---9-9---9-9---9-9-9-9-9-------------|
D--9---9---9---9---9-9---9-9---9-9---9-9-9-9-9-------------|
A--7---7---7---7---7-7---7-7---7-7---7-7-7-7-7-------------|
E----------------------------------------------------------|

Riff B (Guitar 2)
e--12^---12^---12^---12^---12-12---12-12---12-12--12-12-12-|
B--12^---12^---12^---12^---12-12---12-12---12-12--12-12-12-|
G----------------------------------------------------------|
D----------------------------------------------------------|
A----------------------------------------------------------|
E----------------------------------------------------------|

Bridge A (Guitar 1)
e----------------------------------------------------------|
B----------------------------------------------------------|
G--9-----------------9-------------------------------------|
D--x---8---10---7----x---8---10---7------------------------|
A--7---x----x---x----7---x----x---x------------------------|
E------6----8---5--------6----8---5------------------------|

Bridge B (Guitar 2)
e----------------------------------------------------------|
B--11^--10^--8^--------------------------11^--10^--8^------|
G----------------------------------------------------------|
D----------------------------------------------------------|
A----------------------------------------------------------|
E----------------------------------------------------------|

Outro A (Guitar 1)
e----------------------------------------------------------|
B----------------------------------------------------------|
G----------------------------------------------------------|
D--7----7----7---------7----7----7-------------------------|
A--7----7----7---------7----7----7-------------------------|
E--5----5----5---------5----5----5-------------------------|

Outro B (Guitar 2)
e----------------------------------------------------------|
B----------------------------------------------------------|
G--9^----9^----9^-------9^----9^----9^---------------------|
D----------------------------------------------------------|
A----------------------------------------------------------|
E----------------------------------------------------------|


Intro 1
Intro 2
Chorus
Verse
Chorus
Solo A, B
Riff A, B
Verse
Bridge A
Bridge A, B
Outro A, B
Verse
Comments