Offspring - Kids Arent Alright Chords & Tabs

 

Kids Arent Alright Chords & Tabs

Offspring Chords & Tabs

Version: 2 Type: Tab 0 ratings
1 star 2 stars 3 stars 4 stars 5 stars
comments

Kids Arent Alright Tab

---------------------------------------------------------------------------
The Kids Aren’t Allright
By The Offspring
Americana
---------------------------------------------------------------------------
tabbed by Michael Ries
(doctor.colossus@gmx.de)



       intro     (play twice)                                                       
E---||-----------------------|-----------------------|------------------
B---||-----------------------|-----------------------|------------------
G---||---6-6---6-6-5-5-5-6-6-|---6-6---6-6-5-5-5-6-6-|------------------
D---||---8-8---8-8-8-8-8-8-8-|---4-4---4-4-4-4-4-4-4-|------------------
A---||-----------------------|-----------------------|------------------
E---||-----------------------|-----------------------|------------------
         pm.............         pm.............                                                      
                                                                    
E-------------------------|---------------------------||----------------
B-------------------------|---------------------------||----------------
G-----6-6---6-6-5-5-5-6-6-|---8-8-8-6-6-6-5-5-5-6-6-6-||----------------
D-----8-8---8-8-8-8-8-8-8-|---8-8-8-6-6-6-6-6-6-6-6-6-||----------------
A-------------------------|---------------------------||----------------
E-------------------------|---------------------------||----------------
[ Tab from: http://www.guitartabs.cc/tabs/o/offspring/kids_arent_alright_tab_ver_2.html ]
   2nd guitar 
  (starts 2nd time of intro. Also during the Preverse-Riff)
E-----------------------||
B-----------------------||
G---------------6-------||
D---8-----4-----6-----6-||
A---8-----4-----4-----6-||
E---6-----2-----------4-||
  let ring                        

Preverse-Riff
e-----------------------------------|------------------|------------------
B-----------------------------------|------------------|------------------
G-----------------------------------|------------------|------------------
D-----------------------------------|------------------|------------------
A-2--4-5----45--0-2-4-5--7--5--4--5-|-2--4-5----45-0-2-|-4--5--7--5--4--5-
E---------3-------------------------|--------3---------|------------------
									 |(hit 4 times each)

Verses
(First and last time unmuted rest with P.M. (about 12x))
e-------------------------------------------------------------------------
B-------------------------------------------------------------------------
G--------------------------------------6-666666666666-6-------------------
D--8-888888888888-8--4-444444444444-4--6-666666666666-6--6-666666666666-6-
A--8-888888888888-8--4-444444444444-4--4-444444444444-4--6-666666666666-6-
E--6-666666666666-6--2-222222222222-2--------------------4-444444444444-4-

Chorus
(hit chords a bunch of times)
e----------------||
B----------------||
G-----11--6------||
D--8--11--6--6---||
A--8--9---4--6---||
E--6---------4---||

Then there is the solo which I have no idea about !!!


PreEnd-Riff
E-----------------------------------||
B-----11-9-11-9-11-9-11-9-11-9-11-9-||
G-----------------------------------||
D-----------------------------------||
A-----------------------------------||
E-----------------------------------||


Enjoy !!!


Questions, corrections ... well, you know the rest!!!
Comments