Offspring - Kids Arent Alright Chords & Tabs

 

Kids Arent Alright Chords & Tabs

Offspring Chords & Tabs

Version: 1 Type: Tab 0 ratings
1 star 2 stars 3 stars 4 stars 5 stars
comments

Kids Arent Alright Tab

   
     this is the right version of "the kids aren't alright" by the offspring......
this song is tunned down half a step....if you have any problems just send mail to
mug30241@hotmail.com...have fun and enjoy.....

h=hamer on    $=slide

      intro-fast!(repeat 2x)all single notes on this part are muted and all
semi-chords on this part are not muted......

[-----------------------][------------------------]
[-----3---3----22222-2h3][------3---3----22222-2h3]
[-44--4-4-4-44-44444-4--][--00--0-0-0 00-00000-0--]
[-----------------------][------------------------]
[-----------------------][------------------------]
[-----------------------][------------------------]



[-----------------------][---------------------]
[----3---3----22222-2h3-][-3h5-55-3--22222-2h3-]
[-22-2-2-2-22-22222-2---][-2---22-2--22222-2---]
[-----------------------][---------------------]
[-----------------------][---------------------]
[-----------------------][---------------------]


         preverse-slow (starts at 20 seconds)
          repeat twice
[----------------------------------]
[----------------------------------]
[----------------------------------]
[----------------------------------]
[-2--4-5----45--0-2-4-5-5$7-5--4--5]
[---------3------------------------]


          verse-hit the chord once unmuted and then hit it muted about 12 times
muted and then hit that chord unmuted one more time and then change to the 
next chord....(repeat 2 times)
[ Tab from: http://www.guitartabs.cc/tabs/o/offspring/kids_arent_alright_tab.html ]
     b
[--------------------------------------------------------------------------------]
[--------------------------------------------------------------------------------]
[-4--444444444444--4----------------------7--777777777777--7---------------------]
[-4--444444444444--4---5--555555555555-5--7--777777777777--7--7--777777777777--7-]
[-2--222222222222--2---5--555555555555-5--5--555555555555--5--7--777777777777--7-]
[----------------------3--333333333333-3----------------------5--555555555555--5-]


       chorus-same as the verse except no muting involved!!!!
     after chorus repeat in this order-preverse,verse,chorus,solo(below),
      chorus,2 note lead(below).........


          
                        solo (starts at 2 minutes and 15 seconds)

b=bend!!(on the two note part you will only be bending the b string,
not the e string) 
 
---------------------5----7---10---12---14----17-----------------14-14--
---------------------8b--10b--13b--15b--17b------17^(17)--15--17^-------
------------------------------------------------------------------------
------------------------------------------------------------------------
-2-2$4--4$5--5$7-9------------------------------------------------------
------------------------------------------------------------------------ 

 


----14-14----14-14----------------------------10------------10-------------
-17^------17^--------17^17--15----15--17-15--------------10----10--11--12--
-------------------------------16----------------12^(12)-------------------
---------------------------------------------------------------------------
---------------------------------------------------------------------------
---------------------------------------------------------------------------

         hit these three 17's
         while bending  
-----------------------------------------------
-10~~~--15 17^(17-17-17)--15--17^(17)~~~~~~~---
-----------------------------------------------
-----------------------------------------------
-----------------------------------------------
-----------------------------------------------


 2 note lead ( very end of song and during some of the choruses)

--------------
--10--12------
--------------   (repeat over and over again)
--------------      
--------------
--------------
Comments