Offspring - Kids Arent Alright Solo Chords & Tabs

 

Kids Arent Alright Solo Chords & Tabs

Offspring Chords & Tabs

Version: 1 Type: Tab 0 ratings
1 star 2 stars 3 stars 4 stars 5 stars
comments

Kids Arent Alright Solo Tab

#-----------------------------------------------------------------------------#
#-- File created with Instab - http://www.pconline.com/~smcarey/instab.html --#
#-----------------------------------------------------------------------------#

Author/Artist: Offspring
Title: Kids aint alright solo
Album: Americana
Transcribed by: Kenneth Cunningham
Email: Kenneth912@aol.com

Hi im pretty sure this is right, it souunds right neway.
I know 4 a fact that the intro riff thing is right coz i saw the original copy of the riff.
[ Tab from: http://www.guitartabs.cc/tabs/o/offspring/kids_arent_alright_solo_tab.html ]
---------------4-6-9-11-13-18-13-11-9h11-13-13-13-13-13-13-11p9-9h11p9--------
-----------------------------------------------------------------------9-9-7--
------------------------------------------------------------------------------
------------------------------------------------------------------------------
-1-1-3-4-4-6-8----------------------------------------------------------------
------------------------------------------------------------------------------
                                                                              

------------------------------------------------------------------------------
-7-9-9-9-9-9-13-13p11p9-13-11-------------------------------------------------
------------------------------------------------------------------------------
------------------------------------------------------------------------------
------------------------------------------------------------------------------
------------------------------------------------------------------------------
                                                                              

Comments