Offspring - Kick Him When Hes Down Chords & Tabs

 

Kick Him When Hes Down Chords & Tabs

Offspring Chords & Tabs

Version: 2 Type: Bass Tab 0 ratings
1 star 2 stars 3 stars 4 stars 5 stars
comments

Kick Him When Hes Down Bass Tab

Song: Kick Him When He's Down Bass Tabs
Artist: The Offspring
Album: Ignition
Tabbed By the Big JC

The Last Tabs sent in just didn't sound wright to play along with so I wrote
some tabs myself which sound alot better to play along with.  
This is a really great song to play along with as you can really get the feel
for the music. Play this with a pick and lots of feeling.
Here it is so lets go!

No Bass in the intro so straight into the main riff

#main riff#    x2   m=palm muted
G|--------------------------------------------|
D|--------------------------------------------|
A|---9---7------------------------------------|
E|-----------7--2-2-2--2-2-2--2-2-2--2-2-2----|
                m m    m m    m m    m m
[ Tab from: http://www.guitartabs.cc/tabs/o/offspring/kick_him_when_hes_down_btab_ver_2.html ]
#verse#     x2      *=play x6             m=palm mute
G|------------------------------------------------------------------|
D|-------*---------------*----*------*------------------------------|
A|---9--9--7-7--------9-9---9---9--9---7-7-------5-5-5--7-7-7-7-7---|
E|------m-------7-7-----m---m------m-------7-7---------5------------|


#chorus#   x2  (brackets x3)   *=play x14
G|-(-----------------------)------|
D|-(-----------------------)--*---|
A|-(-9--9--5-5--------7-7--)--7---|
E|-(--------------5-5------)------|


Play the main riff, verse and chorus.

#bridge#   x3 
G|----------------------------|
D|----------------------------|
A|---9--9--9-12---7-7-7-------|
E|-------------------------7--|

#bridge 2#        *=play many times
G|------|
D|---*--|
A|---7--|
E|---m--|

Play verse and chorus x3 (play end cord MANY times).
Slide down and it's done. 
Enjoy this great song. The best track on "Ignition" I think and one of my
favourite Offspring songs of all time along with "Beaheaded" and "The Kids
Aren't Alright". If you need anymore Offspring bass tabs or any other bass 
tabs e-mail me at "acegolfer@clark6969.fsnet.co.uk". I'll try my best to get 
you the tabs you requested.
Comments