Offspring - Jennifer Lost The War Chords & Tabs

 

Jennifer Lost The War Chords & Tabs

Offspring Chords & Tabs

Version: 4 Type: Tab 0 ratings
1 star 2 stars 3 stars 4 stars 5 stars
comments

Jennifer Lost The War Tab

The Offspring
Jennifer Lost The War


sTANDARD tUNING 

|-------------------------------------------------------------------|
|------------------------------------------14--14-14-14-12----12~---|
|---------------------------12~12~--12~----14--14-14-14-12----12~---|
|---------------------12h-14------14---14------------------14-------|
|--------10/-12-12h-14----------------------------------------------|
|--10h-12-----------------------------------------------------------|

[ Tab from: http://www.guitartabs.cc/tabs/o/offspring/jennifer_lost_the_war_tab_ver_4.html ]
|--15-15^-15^-15^-15-12------------------------------------------------
|----------------------15-15^-15^-15^-15-12-----------------------14-12
|------------------------------------------14^14^14^-14p-12-------14-12
|----------------------------------------------------------14p-12~-----
|----------------------------------------------------------------------
|----------------------------------------------------------------------cont..

|-------|
|----12~|
|-14-12~|
|-14----|
|-------|
Comments