Offspring - Intermission Chords & Tabs

 

Intermission Chords & Tabs

Offspring Chords & Tabs

Version: 1 Type: Tab 0 ratings
1 star 2 stars 3 stars 4 stars 5 stars
comments

Intermission Tab

INTERMISSION by THE OFFSPRING from IXNAY ON THE HOMBRE (1997)
This is not really a song. It´s more or less a stopgap. But it´s nevertheless funny.
And also easy to play. Let´s begin!

|--------------------------------|---------------------------------|-----------------------------------8------------------------------------|
|--9--6-8--6--9-9-9--6-8--|--8--4-6--4--8-8-8--4-6---|--9--6-8--6-9-9-9--6-8-------------------------------------------|
|--------------------------------|---------------------------------|--------------------------------8---------------------------------------|
|--------------------------------|---------------------------------|-------------------------------------------------------------------------|
|--------------------------------|---------------------------------|-------------------------------------------------------------------------|
|--------------------------------|---------------------------------|-------------------------------------------------------------------------|

[ Tab from: http://www.guitartabs.cc/tabs/o/offspring/intermission_tab.html ]
|--8--5-7--5--8-8-8--5-7-|--7--3-5--3--7-7-7--3-5---|--8--5-7--5--8-8-8--5--7--3--12--------------------------------|
|-------------------------------|---------------------------------|-------------------------------------------------------------------------|
|-------------------------------|---------------------------------|-------------------------------------------------------------------------|
|-------------------------------|---------------------------------|-------------------------------------------------------------------------|
|-------------------------------|---------------------------------|-------------------------------------------------------------------------|
|-------------------------------|---------------------------------|-------------------------------------------------------------------------|


|--13--13-11--11-9--9-8-|--11--11-9--9-8--8-6-------|---------------------------------8----------------------------------------------------|
|--------------------------------|----------------------------------|--9--6-8--6--9-9-9--6-8------9-------------------------------------------------|
|--------------------------------|----------------------------------|---------------------------------------------------------------------------------------|
|--------------------------------|----------------------------------|---------------------------------------------------------------------------------------|
|--------------------------------|----------------------------------|---------------------------------------------------------------------------------------|
|--------------------------------|----------------------------------|---------------------------------------------------------------------------------------|


That´s all! It´s cool to play this one after a hard song.
Send your comments about this Tab to "ali.germany2000@freenet.de"

Tabbed by: Ali_A (3rd March 2001)
Thanks to: Tom Penrose
Comments