Offspring - Intermission Chords & Tabs

 

Intermission Chords & Tabs

Offspring Chords & Tabs

Version: 1 Type: Bass Tab 0 ratings
1 star 2 stars 3 stars 4 stars 5 stars
comments

Intermission Bass Tab

   
====================
>From            : Adrian pellet
Artist          : Offspring
Bass Performance: Intermission 
Comments:       : It's a very funny "song".Listen the CD for the 
timing .

Adrian :THE BEST FRENCH BASSIST!
---
Strings: E ,A ,D ,G 

R=REST

====================
[ Tab from: http://www.guitartabs.cc/tabs/o/offspring/intermission_btab.html ]
|   w  w  w  w  w  w  w  w  w  w  w  w  w  w  w
G --3-------3-------1-------1-------3-------3-------1R--
D -----1-------1-------3-------3-------1-------1--------
A ------------------------------------------------------    FIRST BREAK
E -------------------------------------------------------
>                                              

|   w  w  w  w  w  w  w  w  w  w  w  w  w  w  w
G --7--0----7--0----5--2----5--2----7--0----7--0----5R-
D -----------------------------------------------------     SECOND BREAK
A -----------------------------------------------------  
E -----------------------------------------------------


|   w  w  w  w  w  w  w  w  w  w  w  w  w  w  w
G --3-------3-------3-------6--3----1--4----3-------1R-
D -----3-------3-------3-----------------------1-------    THE END
A -----------------------------------------------------  
E -----------------------------------------------------

Comments