Offspring - I Wanna Be Sedated Chords & Tabs

 

I Wanna Be Sedated Chords & Tabs

Offspring Chords & Tabs

Version: 3 Type: Tab 0 ratings
1 star 2 stars 3 stars 4 stars 5 stars
comments

I Wanna Be Sedated Tab

The Offspring - I Wanna Be Sedated 

Standard Tuning 

Here's a great Ramoneses song covered by the offpring for the "We're a Happy
Family" tribute album. As usual for The Offspring, 2 strings only are quite
enough and correct to reach the original sound. This time however 2 different
guitar layers can be easily heard through the song, although not entirely needed
to having a lot of fun with 1 guitar only. Remember Noodles uses down strokes
only (except for solos and stuff).

Intro
Guitar 1
e|------------------------------------------------------------------------------|
B|------------------------------------------------------------------------------|
G|------------------------------------------------------------------------------|
D|-8/9-9-9-9-9-9-9-9-9-9-9-9-9-8-8/9-9-9-9-9-9-9-9-9-9-9-9-9-9------------------|
A|-6/7-7-7-7-7-7-7-7-7-7-7-7-7-6-6/7-7-7-7-7-7-7-7-7-7-7-7-7-7------------------|
E|------------------------------------------------------------------------------|
       .....................           .....................

Guitar 2
e|------------------------------------------------------------------------------|
B|------------------------------------------------------------------------------|
G|------------------------------------------------------------------------------|
D|------------------------------------------------------------------------------|
A|-2-2-2-2-2-2-2-2-2-2-2-2-2-2-2-2-2-2-2-2-2-2-2-2-2-2-2-2-2-2-2----------------|
E|-0-0-0-0-0-0-0-0-0-0-0-0-0-0-0-0-0-0-0-0-0-0-0-0-0-0-0-0-0-0-0----------------|
   .............................................................

Verse 1
Guitar 1
e|------------------------------------------------------------------------------|
B|------------------------------------------------------------------------------|
G|------------------------------------------------------------------------------|
D|-9-9-9-9-9-9-9-9-9-9-9-9------9-9-9-9-9-9-9-9-9-9-9-9-------------------------|
A|-7-7-7-7-7-7-7-7-7-7-7-7-7----7-7-7-7-7-7-7-7-7-7-7-7-------------------------|
E|-------------------------5----------------------------------------------------|
   ...................          ...................

Guitar 2
e|------------------------------------------------------------------------------|
B|------------------------------------------------------------------------------|
G|------------------------------------------------------------------------------|
D|------------------------------------------------------------------------------|
A|-2-2-2-2-2-2-2-2-2-2-2-2-2-2-2-2-2-2-2-2-2-2-2-2-2-2-2-2-2-2-2----------------|
E|-0-0-0-0-0-0-0-0-0-0-0-0-0-0-0-0-0-0-0-0-0-0-0-0-0-0-0-0-0-0-0----------------|
   .............................................................

Guitar 1
e|------------------------------------------------------------------------------|
B|------------------------------------------------------------------------------|
G|------------------------------------------------------------------------------|
D|-9-9-9-9-9-9-9-9-9-9-9-9------9-9-9-9-9-9-9-9-9-9-9-9-------------------------|
A|-7-7-7-7-7-7-7-7-7-7-7-7-7----7-7-7-7-7-7-7-7-7-7-7-7-------------------------|
E|-------------------------5----------------------------------------------------|
   ...................          ...................

Guitar 2
e|------------------------------------------------------------------------------|
B|------------------------------------------------------------------------------|
G|------------------------------------------------------------------------------|
D|------------------------------------------------------------------------------|
A|-2-2-2-2-2-2-2-2-2-2-2-2-2-2-2-2-2-2-2-2-2-2-2-2-2-2-2-2-2-2-2----------------|
E|-0-0-0-0-0-0-0-0-0-0-0-0-0-0-0-0-0-0-0-0-0-0-0-0-0-0-0-0-0-0-0----------------|
   .............................................................

Chorus 1
Guitar 1
e|------------------------------------------------------------------------------|
B|------------------------------------------------------------------------------|
G|------------------------------------------------------------------------------|
D|-----------------9-9-9-9-9-9-9-9-------------------9-9-9-9-9-9-9-9------------|
A|-9-9-9-9-9-9-9-9-7-7-7-7-7-7-7-7-9-9-9-9-9-9-9-9-9-7-7-7-7-7-7-7-7-9-9-9-9-9--|
E|-7-7-7-7-7-7-7-7-----------------7-7-7-7-7-7-7-7-7-----------------7-7-7-7-7--|
   ...........     ...........     .............     ...........     .......

Guitar 1
e|------------------------------------------------------------------------------|
B|------------------------------------------------------------------------------|
G|------------------------------------------------------------------------------|
D|-------9-9-9-9-9-9-9-9--------------------------------------------------------|
A|-9-9-9-7-7-7-7-7-7-7-7--7-7-7--9-9--------------------------------------------|
E|-7-7-7------------------5-5-5--7-7--------------------------------------------|
   ...     ...........      ...  .

Verse 1
Guitar 1
e|------------------------------------------------------------------------------|
B|------------------------------------------------------------------------------|
G|------------------------------------------------------------------------------|
D|-9-9-9-9-9-9-9-9-9-9-9-9------9-9-9-9-9-9-9-9-9-9-9-9-------------------------|
A|-7-7-7-7-7-7-7-7-7-7-7-7-7----7-7-7-7-7-7-7-7-7-7-7-7-------------------------|
E|-------------------------5----------------------------------------------------|
   ...................          ...................

Guitar 2
e|------------------------------------------------------------------------------|
B|------------------------------------------------------------------------------|
G|------------------------------------------------------------------------------|
D|------------------------------------------------------------------------------|
A|-2-2-2-2-2-2-2-2-2-2-2-2-2-2-2-2-2-2-2-2-2-2-2-2-2-2-2-2-2-2-2----------------|
E|-0-0-0-0-0-0-0-0-0-0-0-0-0-0-0-0-0-0-0-0-0-0-0-0-0-0-0-0-0-0-0----------------|
   .............................................................

Guitar 1
e|------------------------------------------------------------------------------|
B|------------------------------------------------------------------------------|
G|------------------------------------------------------------------------------|
D|-9-9-9-9-9-9-9-9-9-9-9-9------9-9-9-9-9-9-9-9-9-9-9-9-------------------------|
A|-7-7-7-7-7-7-7-7-7-7-7-7-7----7-7-7-7-7-7-7-7-7-7-7-7-------------------------|
E|-------------------------5----------------------------------------------------|
   ...................          ...................

Guitar 2
e|------------------------------------------------------------------------------|
B|------------------------------------------------------------------------------|
G|------------------------------------------------------------------------------|
D|------------------------------------------------------------------------------|
A|-2-2-2-2-2-2-2-2-2-2-2-2-2-2-2-2-2-2-2-2-2-2-2-2-2-2-2-2-2-2-2----------------|
E|-0-0-0-0-0-0-0-0-0-0-0-0-0-0-0-0-0-0-0-0-0-0-0-0-0-0-0-0-0-0-0----------------|
   .............................................................

Chorus 1
Guitar 1
e|------------------------------------------------------------------------------|
B|------------------------------------------------------------------------------|
G|------------------------------------------------------------------------------|
D|-----------------9-9-9-9-9-9-9-9-------------------9-9-9-9-9-9-9-9------------|
A|-9-9-9-9-9-9-9-9-7-7-7-7-7-7-7-7-9-9-9-9-9-9-9-9-9-7-7-7-7-7-7-7-7-9-9-9-9-9--|
E|-7-7-7-7-7-7-7-7-----------------7-7-7-7-7-7-7-7-7-----------------7-7-7-7-7--|
   ...........     ...........     .............     ...........     .......

Guitar 1
e|------------------------------------------------------------------------------|
B|------------------------------------------------------------------------------|
G|------------------------------------------------------------------------------|
D|-------9-9-9-9-9-9-9-9--------------------------------------------------------|
A|-9-9-9-7-7-7-7-7-7-7-7--7-7-7--9-9--------------------------------------------|
E|-7-7-7------------------5-5-5--7-7--------------------------------------------|
   ...     ...........      ...  .

Pre Verse 2
Guitar 1
e|------------------------------------------------------------------------------|
B|------------------------------------------------------------------------------|
G|-9-9-9-9-9-9-9-9-9-9-9-9-9-9-9-9-9-9-9-9-9-9-9-9-9-9-9-9-9-9-9-9--------------|
D|------------------------------------------------------------------------------|
A|------------------------------------------------------------------------------|
E|------------------------------------------------------------------------------|

Guitar 2
e|------------------------------------------------------------------------------|
B|------------------------------------------------------------------------------|
G|------------------------------------------------------------------------------|
D|-9-9-9-9-9-9-9-9-2-2-2-2-2-2-2-2-4-4-4-4-4-4-4-4-9-9-9-9-9-9-9-9--------------|
A|-7-7-7-7-7-7-7-7-0-0-0-0-0-0-0-0-2-2-2-2-2-2-2-2-7-7-7-7-7-7-7-7--------------|
E|------------------------------------------------------------------------------|
   ...............................................................

Guitar 1
e|------------------------------------------------------------------------------|
B|------------------------------------------------------------------------------|
G|------------------------------------------------------------------------------|
D|-8/9-9-9-9-9-9-9-9-9-9-9-9-9--------------------------------------------------|
A|-6/7-7-7-7-7-7-7-7-7-7-7-7-7--------------------------------------------------|
E|------------------------------------------------------------------------------|

Verse 2
Guitar 1
e|------------------------------------------------------------------------------|
B|------------------------------------------------------------------------------|
G|------------------------------------------------------------------------------|
D|-11-11-11-11-11-11-11-11-11-11-11-11-11-11-11-11---11-11-11-11-11-11-11-11----|
A|-9--9--9--9--9--9--9--9--9--9--9--9--9--9--9--9--9-9--9--9--9--9--9--9--9-----|
E|-------------------------------------------------7----------------------------|
     ........................................           ..................
[ Tab from: http://www.guitartabs.cc/tabs/o/offspring/i_wanna_be_sedated_tab_ver_3.html ]
Guitar 2
e|------------------------------------------------------------------------------|
B|------------------------------------------------------------------------------|
G|------------------------------------------------------------------------------|
D|------------------------------------------------------------------------------|
A|-4-4-4-4-4-4-4-4-4-4-4-4-4-4-4-4-4-4-4-4-4-4-4-4-4-4-4-4-4-4-4----------------|
E|-2-2-2-2-2-2-2-2-2-2-2-2-2-2-2-2-2-2-2-2-2-2-2-2-2-2-2-2-2-2-2----------------|
   .............................................................

Guitar 1
e|------------------------------------------------------------------------------|
B|------------------------------------------------------------------------------|
G|------------------------------------------------------------------------------|
D|-11-11-11-11-11-11-11-11-11-11-11-11-11-11-11-11---11-11-11-11-11-11-11-11----|
A|-9--9--9--9--9--9--9--9--9--9--9--9--9--9--9--9--9-9--9--9--9--9--9--9--9-----|
E|-------------------------------------------------7----------------------------|
     ........................................           ..................

Guitar 2
e|------------------------------------------------------------------------------|
B|------------------------------------------------------------------------------|
G|------------------------------------------------------------------------------|
D|------------------------------------------------------------------------------|
A|-4-4-4-4-4-4-4-4-4-4-4-4-4-4-4-4-4-4-4-4-4-4-4-4-4-4-4-4-4-4-4----------------|
E|-2-2-2-2-2-2-2-2-2-2-2-2-2-2-2-2-2-2-2-2-2-2-2-2-2-2-2-2-2-2-2----------------|
   .............................................................

Chorus 2
Guitar 1
e|------------------------------------------------------------------------------|
B|------------------------------------------------------------------------------|
G|------------------------------------------------------------------------------|
D|-------------------------11-11-11-11-11-11-11-------------------------11-11---|
A|-11-11-11-11-11-11-11-11-9--9--9--9--9--9--9--11-11-11-11-11-11-11-11-9--9----|
E|-9--9--9--9--9--9--9--9-----------------------9--9--9--9--9--9--9--9----------|
    ................        .............        ................        .

Guitar 1
e|------------------------------------------------------------------------------|
B|------------------------------------------------------------------------------|
G|------------------------------------------------------------------------------|
D|-11-11-11-11-11-11-------------------------11-11-11-11-11-11-11---------------|
A|-9--9--9--9--9--9--11-11-11-11-11-11-11-11-9--9--9--9--9--9--9---9-9-9--11-11-|
E|-------------------9--9--9--9--9--9--9--9------------------------7-7-7--9--9--|
      ..........        ................        ..............       ...  .

Verse 2
Guitar 1
e|------------------------------------------------------------------------------|
B|------------------------------------------------------------------------------|
G|------------------------------------------------------------------------------|
D|-11-11-11-11-11-11-11-11-11-11-11-11-11-11-11-11---11-11-11-11-11-11-11-11----|
A|-9--9--9--9--9--9--9--9--9--9--9--9--9--9--9--9--9-9--9--9--9--9--9--9--9-----|
E|-------------------------------------------------7----------------------------|
     ........................................           ..................

Guitar 2
e|------------------------------------------------------------------------------|
B|------------------------------------------------------------------------------|
G|------------------------------------------------------------------------------|
D|------------------------------------------------------------------------------|
A|-4-4-4-4-4-4-4-4-4-4-4-4-4-4-4-4-4-4-4-4-4-4-4-4-4-4-4-4-4-4-4----------------|
E|-2-2-2-2-2-2-2-2-2-2-2-2-2-2-2-2-2-2-2-2-2-2-2-2-2-2-2-2-2-2-2----------------|
   .............................................................


Guitar 1
e|------------------------------------------------------------------------------|
B|------------------------------------------------------------------------------|
G|------------------------------------------------------------------------------|
D|-11-11-11-11-11-11-11-11-11-11-11-11-11-11-11-11---11-11-11-11-11-11-11-11----|
A|-9--9--9--9--9--9--9--9--9--9--9--9--9--9--9--9--9-9--9--9--9--9--9--9--9-----|
E|-------------------------------------------------7----------------------------|
     ........................................           ..................

Guitar 2
e|------------------------------------------------------------------------------|
B|------------------------------------------------------------------------------|
G|------------------------------------------------------------------------------|
D|------------------------------------------------------------------------------|
A|-4-4-4-4-4-4-4-4-4-4-4-4-4-4-4-4-4-4-4-4-4-4-4-4-4-4-4-4-4-4-4----------------|
E|-2-2-2-2-2-2-2-2-2-2-2-2-2-2-2-2-2-2-2-2-2-2-2-2-2-2-2-2-2-2-2----------------|
   .............................................................

Chorus 2
Guitar 1
e|------------------------------------------------------------------------------|
B|------------------------------------------------------------------------------|
G|------------------------------------------------------------------------------|
D|-------------------------11-11-11-11-11-11-11-------------------------11-11---|
A|-11-11-11-11-11-11-11-11-9--9--9--9--9--9--9--11-11-11-11-11-11-11-11-9--9----|
E|-9--9--9--9--9--9--9--9-----------------------9--9--9--9--9--9--9--9----------|
    ................        .............        ................        .

Guitar 1
e|------------------------------------------------------------------------------|
B|------------------------------------------------------------------------------|
G|------------------------------------------------------------------------------|
D|-11-11-11-11-11-11-------------------------11-11-11-11-11-11-11---------------|
A|-9--9--9--9--9--9--11-11-11-11-11-11-11-11-9--9--9--9--9--9--9---9-9-9--11-11-|
E|-------------------9--9--9--9--9--9--9--9------------------------7-7-7--9--9--|
      ..........        ................        ..............       ...  .

Ending
Guitar 1
e|------------------------------------------------------------------------------|
B|------------------------------------------------------------------------------|
G|------------------------------------------------------------------------------|
D|------------------------------------------------------------------------------|
A|------------------------------------------------------------------------------|
E|------------------------------------------------------------------------------|

Guitar 2
e|------------------------------------------------------------------------------|
B|------------------------------------------------------------------------------|
G|------------------------------------------------------------------------------|
D|11-11-11-11-11-11-11-11-4-4-4-4-4-4-4-4-6-6-6-6-6-6-6-6-11-11-11-11-11-11-11--|
A|9--9--9--9--9--9--9--9--2-2-2-2-2-2-2-2-4-4-4-4-4-4-4-4-9--9--9--9--9--9--9---|
E|------------------------------------------------------------------------------|
  ............................................................................

Guitar 1
e|------------------------------------------------------------------------------|
B|------------------------------------------------------------------------------|
G|------------------------------------------------------------------------------|
D|------------------------------------------------------------------------------|
A|------------------------------------------------------------------------------|
E|------------------------------------------------------------------------------|

Guitar 2
e|------------------------------------------------------------------------------|
B|------------------------------------------------------------------------------|
G|------------------------------------------------------------------------------|
D|11-11-11-11-11-11-11-11-4-4-4-4-4-4-4-4-6-6-6-6-6-6-6-6-11-11-11-11-11-11-11--|
A|9--9--9--9--9--9--9--9--2-2-2-2-2-2-2-2-4-4-4-4-4-4-4-4-9--9--9--9--9--9--9---|
E|------------------------------------------------------------------------------|
  ............................................................................

Guitar 1
e|------------------------------------------------------------------------------|
B|-7-7-7-7-7-7-7-7-7-7-7-7-7-7-7-7-7-7-7-7-7-7-7-7-7-7-7-7-7-7-7-7-7-7-7-7-7-7--|
G|------------------------------------------------------------------------------|
D|------------------------------------------------------------------------------|
A|------------------------------------------------------------------------------|
E|------------------------------------------------------------------------------|

Guitar 2
e|------------------------------------------------------------------------------|
B|------------------------------------------------------------------------------|
G|------------------------------------------------------------------------------|
D|11-11-11-11-11-11-11-11-4-4-4-4-4-4-4-4-6-6-6-6-6-6-6-6-11-11-11-11-11-11-11--|
A|9--9--9--9--9--9--9--9--2-2-2-2-2-2-2-2-4-4-4-4-4-4-4-4-9--9--9--9--9--9--9---|
E|------------------------------------------------------------------------------|
  ............................................................................

Guitar 1
e|------------------------------------------------------------------------------|
B|-7-7-7-7-7-7-7-7-7-7-7-7-7-7-7-7-7-7-7-7-7-7-7-7-7-7-7-7-7-7------------------|
G|------------------------------------------------------------------------------|
D|------------------------------------------------------------------------------|
A|------------------------------------------------------------------------------|
E|------------------------------------------------------------------------------|


Guitar 2
e|------------------------------------------------------------------------------|
B|------------------------------------------------------------------------------|
G|------------------------------------------------------------------------------|
D|11-11-11-11-11-11-11-11-4-4-4-4-4-4-4-4-6-6-6-6-6-6-6-6-11-11-----------------|
A|9--9--9--9--9--9--9--9--2-2-2-2-2-2-2-2-4-4-4-4-4-4-4-4-9--9------------------|
E|------------------------------------------------------------------------------|
  .........................................................
Comments