Offspring - Huck It Chords & Tabs

 

Huck It Chords & Tabs

Offspring Chords & Tabs

Version: 6 Type: Tab 0 ratings
1 star 2 stars 3 stars 4 stars 5 stars
comments

Huck It Tab

   
-------------------------------------------------------------------------------
			     HUCK IT - The Offspring
-------------------------------------------------------------------------------
Tabbed by: Beno (credit to mark brown's tab. But not copied.)
Email: benday1990@hotmail.com

Tuning: Standard, far as I can tell (eBGDAE)

When there is no guitar notation (G1 or G2), both play.
Intro G1
e|-7---------------------------8--|
B|---------8---------10-----------|
G|--------------------------------|
D|--------------------------------| x2
A|--------------------------------|
E|--------------------------------|

Then G2 plays these riffs, one repeat per one repeat of the above riff.
e|--------------------------------|
B|--------------------------------|
G|-9============================--|
D|-9============================--| x2
A|-7============================--|
E|--------------------------------|

e|--------------------------------|
B|--------------------------------|
G|-999999-777777--------12121212--|
D|-999999-777777-777777-12121212--| x2
A|-777777-555555-777777-10101010--|
E|---------------555555-----------|

Verse
e|---------------------------------------------------------------------------|
B|---------------------------------------------------------------------------|
G|-9--12-1112-9--12-11-7---------------9--12-1112--12-11-12-7====7-7-7-7777--|
D|-9--12-1112-9--12-11-7-555555-777777-9--12-1112--12-11-12-7====7-7-7-7777--|
A|-7--10--910-7--10--9-5-555555-777777-7--10--910--10--9-10-5====5-5-5-5555--|
E|-----------------------333333-555555---------------------------------------|
                         ...... ......
Chorus
e|--------------------------------------------------------------------------------|
B|--------------------------------------------------------------------------------|
G|-------------12-12-14-14-------------------12-12-12-12-------------12-12-14-14--|
D|-10-10-10-10-12-12-14-14-14-14-14-14-14-14-12-12-12-12-10-10-10-10-12-12-14-14--|
A|-10-10-10-10-10-10-12-12-14-14-14-14-14-14-10-10-10-10-10-10-10-10-10-10-12-12--|
E|--8--8--8--8-------------12-12-12-12-12-12--------------8--8--8--8--------------|

e|--------------------------------------------------------------------|
B|--------------------------------------------------------------------|
G|-------------------12-12-12-12-------------------12-12-12-12--------|
D|-14-14-14-14-14-14-12-12-12-12-14-14-14-14-14-14-12-12-12-12-14-12--|
A|-14-14-14-14-14-14-10-10-10-10-14-14-14-14-14-14-10-10-10-10-14-12--|
E|-12-12-12-12-12-12-------------12-12-12-12-12-12-------------12-10--|

Verse
e|-------------------------------------|
B|-------------------------------------|
G|-9--12-1112-9--12-11-7---------------|
D|-9--12-1112-9--12-11-7-555555-777777-| x2
A|-7--10--910-7--10--9-5-555555-777777-|
E|-----------------------333333-555555-|
                         ...... ......
[ Tab from: http://www.guitartabs.cc/tabs/o/offspring/huck_it_tab_ver_6.html ]
e|----------------------------------------------------------------|
B|----------------------------------------------------------------|
G|----------------7------------------------------7====7-7-7-7777--|
D|-2--5-45-2--5-4-7-555555-777777-2--5-45-2--5-4-7====7-7-7-7777--|
A|-2--5-45-2--5-4-5-555555-777777-2--5-45-2--5-4-5====5-5-5-5555--|
E|-0--3-23-0--3-2---333333-555555-0--3-23-0--3-2------------------|
                    ...... ......
Chorus
e|--------------------------------------------------------------------------------|
B|--------------------------------------------------------------------------------|
G|-------------12-12-14-14-------------------12-12-12-12-------------12-12-14-14--|
D|-10-10-10-10-12-12-14-14-14-14-14-14-14-14-12-12-12-12-10-10-10-10-12-12-14-14--|
A|-10-10-10-10-10-10-12-12-14-14-14-14-14-14-10-10-10-10-10-10-10-10-10-10-12-12--|
E|--8--8--8--8-------------12-12-12-12-12-12--------------8--8--8--8--------------|

e|--------------------------------------------------------------------|
B|--------------------------------------------------------------------|
G|-------------------12-12-12-12-------------------12-12-12-12--------|
D|-14-14-14-14-14-14-12-12-12-12-14-14-14-14-14-14-12-12-12-12-14-12--| x2
A|-14-14-14-14-14-14-10-10-10-10-14-14-14-14-14-14-10-10-10-10-14-12--|
E|-12-12-12-12-12-12-------------12-12-12-12-12-12-------------12-10--|

Intro G1
e|-7---------------------------8--|
B|---------8---------10-----------|
G|--------------------------------|
D|--------------------------------| x2
A|--------------------------------|
E|--------------------------------|

Interlude G2
e|----------------------------------------------------------------|
B|----------------------------------------------------------------|
G|----------------7------------------------------7====7-7-7-7777--|
D|-2--5-45-2--5-4-7-555555-777777-2--5-45-2--5-4-7====7-7-7-7777--|
A|-2--5-45-2--5-4-5-555555-777777-2--5-45-2--5-4-5====5-5-5-5555--|
E|-0--3-23-0--3-2---333333-555555-0--3-23-0--3-2------------------|
                    ...... ......
Chorus
e|--------------------------------------------------------------------------------|
B|--------------------------------------------------------------------------------|
G|-------------12-12-14-14-------------------12-12-12-12-------------12-12-14-14--|
D|-10-10-10-10-12-12-14-14-14-14-14-14-14-14-12-12-12-12-10-10-10-10-12-12-14-14--|
A|-10-10-10-10-10-10-12-12-14-14-14-14-14-14-10-10-10-10-10-10-10-10-10-10-12-12--|
E|--8--8--8--8-------------12-12-12-12-12-12--------------8--8--8--8--------------|
							 x2
e|--------------------------------------------------------------------|---|
B|--------------------------------------------------------------------|---|
G|-------------------12-12-12-12-------------------12-12-12-12--------|-9-|
D|-14-14-14-14-14-14-12-12-12-12-14-14-14-14-14-14-12-12-12-12-14-12--|-9-| 
A|-14-14-14-14-14-14-10-10-10-10-14-14-14-14-14-14-10-10-10-10-14-12--|-7-|
E|-12-12-12-12-12-12-------------12-12-12-12-12-12-------------12-10--|---|


| /  slide up
| \  slide down
| h  hammer-on
| p  pull-off
| ~  vibrato
| +  harmonic
| x  Mute note
| =  Hold Note
| .  Palm Mute
===============================================================================
Comments