Offspring - Huck It Chords & Tabs

 

Huck It Chords & Tabs

Offspring Chords & Tabs

Version: 4 Type: Tab 0 ratings
1 star 2 stars 3 stars 4 stars 5 stars
comments

Huck It Tab

   
Intro  
e|----------------   
B|-12-------13----  
G|----12-14-------  
D|----------------          
A|----------------                    
E|----------------                    


Pre-Verse 
e|------------------------------------------------------------------- 
B|------------------------------------------------------------------- 
G|-9-9-9-9-9-9-9-7-7-7-7-7-7-7---------------12-12-12-12-14-14-14-14- 
D|-9-9-9-9-9-9-9-7-7-7-7-7-7-7-7-7-7-7-7-7-7-12-12-12-12-14-14-14-14- 
A|-7-7-7-7-7-7-7-5-5-5-5-5-5-5-7-7-7-7-7-7-7-10-10-10-10-12-12-12-12- 
E|-----------------------------5-5-5-5-5-5-5------------------------- 


Verse One 
e------------------------------------------------- 
B------------------------------------------------- 
G--9-12-11-12-9-12-11-12-7------------------------ 
E--9-12-11-12-9-12-11-12-7--5-5-5-5-5-5-5/7-7-7--- 
A--7-10--9-10-7-10--9-10-5--5-5-5-5-5-5-5/7-7-7--- 
E---------------------------3-3-3-3-3-3-3/5-5-5--- 

e---------------------------------------------------------
B--------------------------------------------------------- 
G--9--12-11-12-9-12-11-12-7-7-7-7-7-7-7-7-7-7-7-7-7-7-7-7- 
E--9--12-11-12-9-12-11-12-7-7-7-7-7-7-7-7-7-7-7-7-7-7-7-7- 
A--7--10--9-10-7-10--9-10-5-5-5-5-5-5-5-5-5-5-5-5-5-5-5-5- 
E---------------------------------------------------------


Chorus 
e----------------------------------------- 
B----------------------------------------- 
G--------------12-14----9-9-9-9-9-12------ 
D--10-10-10-10-12-14-12-9-9-9-9-9-12-12--- 
A--10-10-10-10-10-12-12-7-7-7-7-7-10-12--- 
E---8--8--8--8-------10--------------10--- 
[ Tab from: http://www.guitartabs.cc/tabs/o/offspring/huck_it_tab_ver_4.html ]
e---------------------------------------------------------- 
B---------------------------------------------------------- 
G--------------12-14----9-9-9-9-9-12----9-9-9-9-9-12-9-7--- 
D--10-10-10-10-12-14-12-9-9-9-9-9-12-12-9-9-9-9-9-12-9-7--- 
A--10-10-10-10-10-12-12-7-7-7-7-7-10-12-7-7-7-7-7-10-7-5--- 
E---8--8--8--8-------10--------------10-------------------- 



Verse two 
e------------------------------------------------ 
B------------------------------------------------ 
G--9-12-11-12-9-12-11-12-7----------------------- 
E--9-12-11-12-9-12-11-12-7-5-5-5-5-5-5-5/7-7-7--- 
A--7-10--9-10-7-10--9-10-5-5-5-5-5-5-5-5/7-7-7--- 
E--------------------------3-3-3-3-3-3-3/5-5-5--- 


(x2) 
e------------------------------------------------ 
B------------------------------------------------ 
G--9-12-11-12-9-12-11-12-7----------------------- 
E--9-12-11-12-9-12-11-12-7-5-5-5-5-5-5-5/7-7-7--- 
A--7-10--9-10-7-10--9-10-5-5-5-5-5-5-5-5/7-7-7--- 
E--------------------------3-3-3-3-3-3-3/5-5-5--- 

e-------------------------------------------------------- 
B-------------------------------------------------------- 
G--9-12-11-12-9-12-11-12-7-7-7-7-7-7-7-7-7-7-7-7-7-7-7-7- 
E--9-12-11-12-9-12-11-12-7-7-7-7-7-7-7-7-7-7-7-7-7-7-7-7- 
A--7-10--9-10-7-10--9-10-5-5-5-5-5-5-5-5-5-5-5-5-5-5-5-5- 
E--------------------------------------------------------
 


Bridge 
e----------------------------------------------- 
B----------------------------------------------- 
G--9-9-12-11-12-9-12-11-17---------------------- 
D--9-9-12-11-12-9-12-11-17-5-5-5-5-5-5-5/7-7-7-- 
A--7-7-10--9-10-7-10--9-15-5-5-5-5-5-5-5/7-7-7-- 
E--------------------------3-3-3-3-3-3-3/5-5-5-- 

e------------------------------------------------------- 
B------------------------------------------------------- 
G--9-12-11-12-9-12-11-19-19-19-19-19-19-19-19-19-19-19-- 
E--9-12-11-12-9-12-11-19-19-19-19-19-19-19-19-19-19-19-- 
A--7-10--9-10-7-10--9-17-17-17-17-17-17-17-17-17-17-17-- 
E-------------------------------------------------------
this tab took me awhile, i thought i should do it coz nobody else has bothered
Comments